Oops, an error
Loading. Please wait.

Out The Window bass

593 views 1 this week
no commentswrite comment
1 2 3 4 5
1 last vote to show rating
add to favorites
×
Save as Personal and add changes to this tab that will be seen only by you. Learn more ›
×
You can save this tab as Personal to edit and correct it or add notes. All changes will be seen only by you. Learn more »
launch autoscroll
font size
0
reset
guitar tuner
edit
Autoscroll
slow
fast
+/-
esc
set tempo
stop
Author
-------------------------------------------------------------------------------
                             Out the Window - Violent Femmes
-------------------------------------------------------------------------------
Tabbed by: Drew Walker

Tuning: Standard

Verse

G|--------------------------------------------------------------------------|
D|--------------------------------------------------------------------------|
A|--------------------------------------2h3-3-3-2h3-3-3-2h3-3-3-2h3-3-3-----|
E|---2h3-3-3-2h3-3-3-2h3-3-3-2h3-3-3----------------------------------------|

G|--------------------------------------------------------------------------|
D|--------------------------------------------------------------------------|
A|--------------------------------------4h5-5-5-4h5-5-5-4h5-5-5-4h5-5-5-----|
E|---2h3-3-3-2h3-3-3-2h3-3-3-2h3-3-3----------------------------------------|

G|--------------------------------------------------------------------------|
D|--------------------------------------------------------------------------|
A|--------------------------------------2h3-3-3-2h3-3-3-2h3-3-3-2h3-3-3-----|
E|---2h3-3-3-2h3-3-3-2h3-3-3-2h3-3-3----------------------------------------|

G|-------------------------------------|
D|-------------------------------------|
A|---4h5-5-5-4h5-5-5-4h5-5-5-4h5-5-5---|
E|-------------------------------------|

Chorus("Go out the window"):

G|-----------------------------------------------------------|
D|-----------------------------------------------------------|
A|-----3---3---3-----3---3---3-------------------------------|
E|-----------------------------0h2--3---3---3-----3---3---3--|

G|--------------------------------------------------------------|
D|--------------------------------------------------------------|
A|--0h4--5---5---5-----5---5---5--------------------------------|
E|--------------------------------0h2--3---3---3-----3---3---3--|

Riff between first chorus and second verse

G|------------------|
D|------------------|
A|------2-2---------|
E|--3-3-----0-0-2-2-|


 (intro from chorus)|  "Catch me if I'm falling..."

G|------------------|------------------------------------------------------------|
D|------------------|-----------------------------------0-0-2-0---------0-0-2-0--|
A|------0-0-1-1-2-2-|3-----------3--3---------------2-2-------------2-2----------|
E|--3-3-------------|---0--3--5------0--3-3-5-3-3-3-------------3-3--------------|

G|-----------------------------------------------------2-2-4-2---------------|
D|-------------------------------------0-0-2-0-0-0-4-4-----------------------|
A|--3-----------3--3---------------2-2---------------------------------------|
E|-----0--3--5------0--3-3-5-3-3-3-------------------------------------------|

Bass Solo

G|----------------------------------------------------------------------|
D|------------------------------------0-0-2-0---------0-0-2-0-----------|
A|--3---------3-3-3---------------1/2-------------1/2-------------------|
E|-----0--3--5------0--3--5-3-3-3-------------3-3-----------------------|

G|----------------------------------------------------2-2-4-2-5--4------|
D|------------------------------------0-0-2-0-0-0-4-4-------------------|
A|--3---------3-3-3---------------1/2-----------------------------------|
E|-----0--3--5------0--3--5-3-3-3---------------------------------------|

G|--2-2-----2-2-----2-2-----2-2---------------|
D|------3h4-----3h4-----3h4-----5\------------|
A|--------------------------------------------|
E|---------------------------------3----------|

Order:

   Verse x1
   Chorus x1
   Verse x1
   Chorus x1
   "Catch me..." x1
   Verse x1
   Chorus x1
   "Catch me..." x2
   Vocals & Drums only section
   "Catch me..." x2
   Bass Solo

| /  slide up
| \  slide down
| h  hammer-on
| p  pull-off
| ~  vibrato
| +  harmonic
| x  Mute note
===============================================================================

            
            
Suggest correction
Creating personal tab
Creating personal tab
You can edit any tab online and save it as your Personal.

You can edit, replace or remove any tab part or add personal notes – all changes will be seen only by you.

Personal tabs can be accessed anytime from any device, even offline.
Learn more »
Give kudos to tab author, rate the tab!
1 2 3 4 5
comments
print report bad tab
guest
You may want to rate the tab now too:
select rating
Wanna post a correction for this tab? Suggest correction