Oops, an error
Loading. Please wait.

Black City tab

145 views 3 this week
no commentswrite comment
1 2 3 4 5
1 last vote to show rating
add to favorites
×
Save as Personal and add changes to this tab that will be seen only by you. Learn more ›
×
You can save this tab as Personal to edit and correct it or add notes. All changes will be seen only by you. Learn more »
launch autoscroll
font size
0
reset
how to read this tab
guitar tuner
edit
Autoscroll
slow
fast
+/-
esc
set tempo
stop
[Intro]

e|---------------------------------------------------------------------------|
B|---------------------------------------------------------------------------|
G|---------------------------------------------------------------------------| 
D|-----3--0---0---0----------------------------------------------------------|
A|---0------0-------0---0---0------------------------------------------------|
D|-0------------0-----5---3---0----------------------------------------------|
                                                                              
e|---------------------------------------------------------------------------|
B|---------------------------------------------------------------------------|
G|---------------------------------------------------------------------------|x3 
D|-----3--0---0-----0--------------------------------------------------------|
A|---0------0-----0---0---0---0----------------------------------------------|
D|-0------------0-------5---3---0--------------------------------------------|

e|---------------------------------------------------------------------------|
B|---------------------------------------------------------------------------|
G|---------------------------------------------------------------------------| 
D|-----3--0---5--3---0-------------------------------------------------------|
A|---0------0------0---0---0---0---------------------------------------------|
D|-0---------------------5---3---0-------------------------------------------|

e|---------------------------------------------------------------------------|
B|---------------------------------------------------------------------------|
G|---------------------------------------------------------------------------| 
D|-----3--0---5--3--0--0-----------------------------------------------------|
A|---0------0--------------0---0---------------------------------------------|
D|-0---------------------5---3---0-------------------------------------------|

e|---------------------------------------------------------------------------|
B|---------------------------------------------------------------------------|
G|---------------------------------------------------------------------------| 
D|-----3--0---5--3--0--0--(0)-(0)--------------------------------------------|
A|---0------0--------------0---0---------------------------------------------|
D|-0---------------------5---3---0-------------------------------------------|

e|---------------------------------------------------------------------------|
B|---------------------------------------------------------------------------|
G|---------------------------------------------------------------------------| 
D|-----3--0---5--3---0-------------------------------------------------------|
A|---0------0------0---0---0---0---------------------------------------------|
D|-0---------------------5---3---0-------------------------------------------|


[Verse]

e|---------------------------------------------------------------------------|
B|---------------------------------------------------------------------------|
G|---------------------------------------------------------------------------|x8
D|-----3--0---5--3--0--------------------------------------------------------|
A|---0------0---------0---0---0----------------------------------------------|
D|-0--------------------5---3---0--------------------------------------------|
PM..............
e|---------------------------------------------------------------------------|
B|---------------------------------------------------------------------------|
G|---------------------------------------------------------------------------|x4
D|-0-0--0--0--0--0-3-0-5-3---------------------------------------------------|
A|-0-0--0--0--0--0-3-0-5-3---------------------------------------------------|
D|-0-0--0--0--0--0-3-0-5-3---------------------------------------------------|


[Chorus]

Second half of the chorus plays 5 times on the last bar on both parts
e|---------------------------------------------------------------------------|
B|---------------------------------------------------------------------------|
G|---------------------------------------------------------------------------| 
D|-5-5-5-5-5-5-5-3-3-3-3-3-3-3-5-4-3-0-0-3-0-0-3-0-5-3-5-4-3-0-0-3-0-5-3-----|
A|-5-5-5-5-5-5-5-3-3-3-3-3-3-3-5-4-3-0-0-3-0-0-3-0-5-3-5-4-3-0-0-3-0-5-3-----|
D|-5-5-5-5-5-5-5-3-3-3-3-3-3-3-5-4-3-0-0-3-0-0-3-0-5-3-5-4-3-0-0-3-0-5-3-----|
                                                                              x2
e|---------------------------------------------------------------------------|
B|---------------------------------------------------------------------------|
G|-----------------------------12-11-10-7-7-10-7-7-10-7-7-10-7-12-10-(x2)----|
D|-0-3/5-7---0-5/7-10-(x1)---------------------------------------------------|
A|---------------------------------------------------------------------------|
D|---------------------------------------------------------------------------|


[Bridge]
PM..............
e|---------------------------------------------------------------------------|    
B|---------------------------------------------------------------------------|   
G|---------------------------------------------------------------------------|x2 
D|-0-0--0--0--0--0-3-0-5-3---------------------------------------------------|  
A|-0-0--0--0--0--0-3-0-5-3---------------------------------------------------|   
D|-0-0--0--0--0--0-3-0-5-3---------------------------------------------------|   


[Verse]

e|---------------------------------------------------------------------------|
B|---------------------------------------------------------------------------|
G|---------------------------------------------------------------------------|
D|-----3--0---5--3--0--------------------------------------------------------|
A|---0------0---------0---0---0----------------------------------------------|
D|-0--------------------5---3---0--------------------------------------------|
               PM..............                                               x8
e|---------| e|--------------------------------------------------------------|
B|---------| B|--------------------------------------------------------------|
G|---------| G|--------------------------------------------------------------|
D|-5-3-0-0-| D|-0-0--0--0--0--0-3-0-5-3--------------------------------------|
A|-5-3-0-0-| A|-0-0--0--0--0--0-3-0-5-3--------------------------------------|
D|-5-3-0-0-| D|-0-0--0--0--0--0-3-0-5-3--------------------------------------|


[Chorus]

Second half of the Chorus plays 5 times on the last bar on both parts
e|---------------------------------------------------------------------------|
B|---------------------------------------------------------------------------|
G|---------------------------------------------------------------------------|
D|-5-5-5-5-5-5-5-3-3-3-3-3-3-3-5-4-3-0-0-3-0-0-3-0-5-3-5-4-3-0-0-3-0-5-3-----|
A|-5-5-5-5-5-5-5-3-3-3-3-3-3-3-5-4-3-0-0-3-0-0-3-0-5-3-5-4-3-0-0-3-0-5-3-----|
D|-5-5-5-5-5-5-5-3-3-3-3-3-3-3-5-4-3-0-0-3-0-0-3-0-5-3-5-4-3-0-0-3-0-5-3-----|
                                                                              x2  
e|---------------------------------------------------------------------------|
B|---------------------------------------------------------------------------|
G|-----------------------------12-11-10-7-7-10-7-7-10-7-7-10-7-12-10-(x2)----|
D|-0-3/5-7---0-5/7-10-(x1)---------------------------------------------------|
A|---------------------------------------------------------------------------|
D|---------------------------------------------------------------------------|


[Breakdown]

Part 1
e|---------------------------------------------------------------------------|
B|---------------------------------------------------------------------------|
G|---------------------------------------------------------------------------|
D|-----3--0---5--3--0--------------------------------------------------------|
A|---0------0---------0---0---0----------------------------------------------|
D|-0--------------------5---3---0--------------------------------------------|
 PM............                                                               x10
e|---------------------------------------------------------------------------|
B|---------------------------------------------------------------------------|
G|---------------------------------------------------------------------------|
D|-0-0--0--0--0--0-3-0-5-3---------------------------------------------------|
A|-0-0--0--0--0--0-3-0-5-3---------------------------------------------------|
D|-0-0--0--0--0--0-3-0-5-3---------------------------------------------------|

Part 2

e|---------------------------------------------------------------------------|
B|---------------------------------------------------------------------------|
G|---------------------------------------------------------------------------|x9
D|-0-0-3-0-0-3-0-5-3---------------------------------------------------------|
A|-0-0-3-0-0-3-0-5-3---------------------------------------------------------|
D|-0-0-3-0-0-3-0-5-3---------------------------------------------------------|

e|---------------------------------------------------------------------------|
B|---------------------------------------------------------------------------|
G|-14~~~~~~~~~~~~~~~12~~~~~~~~~~~~~~10~~~~~~~~~~~~~~~9~~~~~~~~~~~~~~~~~~-----|x2
D|---------------------------------------------------------------------------|
A|---------------------------------------------------------------------------|
D|---------------------------------------------------------------------------|


[Outro]

Second half of the Outro plays 5 times on the last bar on the first part only
e|---------------------------------------------------------------------------|
B|---------------------------------------------------------------------------|
G|---------------------------------------------------------------------------| 
D|-5-5-5-5-5-5-5-3-3-3-3-3-3-3-5-4-3-0-0-3-0-0-3-0-5-3-5-4-3-0-0-3-0-5-3-----|
A|-5-5-5-5-5-5-5-3-3-3-3-3-3-3-5-4-3-0-0-3-0-0-3-0-5-3-5-4-3-0-0-3-0-5-3-----|
D|-5-5-5-5-5-5-5-3-3-3-3-3-3-3-5-4-3-0-0-3-0-0-3-0-5-3-5-4-3-0-0-3-0-5-3-----|
                                                                              x2
e|---------------------------------------------------------------------------|
B|---------------------------------------------------------------------------|
G|------------------------------------19~~~~~~~~~~~~~~~~~~-------------------| 
D|-12-15/17-19--12-17/19-22~~~~~~~~~~~---------------------------------------|
A|---------------------------------------------------------------------------|
D|---------------------------------------------------------------------------|

************************************

| (n) Ghost note
| ~   Vibrato
| /   Slide up
| PM  Palm mute

************************************

            
            
Suggest correction
Creating personal tab
Creating personal tab
You can edit any tab online and save it as your Personal.

You can edit, replace or remove any tab part or add personal notes – all changes will be seen only by you.

Personal tabs can be accessed anytime from any device, even offline.
Learn more »
Give kudos to tab author, rate the tab!
1 2 3 4 5
comments
print report bad tab
guest
You may want to rate the tab now too:
select rating
Wanna post a correction for this tab? Suggest correction