Oops, an error
Loading. Please wait.

Blanket bass

version 1
version 1

Whole song

  • Full bass tab for the album version of Blanket, on WACO (2016).

Interactive

454 views 3 this week
no commentswrite comment
1 2 3 4 5
3 more votes to show rating
add to favorites
×
Save as Personal and add changes to this tab that will be seen only by you. Learn more ›
×
You can save this tab as Personal to edit and correct it or add notes. All changes will be seen only by you. Learn more »
launch autoscroll
font size
0
reset
guitar tuner
edit
Autoscroll
slow
fast
+/-
esc
set tempo
stop
Author
Difficulty
About this tab version
Full bass tab for the album version of Blanket, on WACO (2016). Was this info helpful? Yes No
Violent Soho
“Blanket”
Waco (2016)

Standard Tuning (EADG)

Pretty straightforward song, the bassline is
the same in the verse and the chorus. This might
not be exactly how they play it, but it should
still be the right notes. Questions, comments,
and concerns, please let me know!
~Jeyqwop


Intro:
(0:00-0:11)
[No bass]


Verse:
(0:12-0:35)
[No bass]

(0:35-0:59)
  1  ^  ^  ^  2  ^  ^  ^  3  ^  ^  ^  4  ^  ^  ^    
G|-------------------------------------------------|\
D|-------------------------------------------------| \
A|-6--6--6--6--6--6--6--6--6--6--6--8--8--6--6--8--|  \
E|-------------------------------------------------|   \
                                                        |
  1  ^  ^  ^  2  ^  ^  ^  3  ^  ^  ^  4  ^  ^  ^        |
G|-------------------------------------------------|    |
D|-------------------------------------------------|    |
A|-9--9--9--9--9--9--9--9--9--9--9--11-11-9--9--11-|    |
E|-------------------------------------------------|    |
                                                      (x2)
  1  ^  ^  ^  2  ^  ^  ^  3  ^  ^  ^  4  ^  ^  ^        |
G|-------------------------------------------------|    |
D|----------------------------------10-10-------10-|    |
A|-13-13-13-13-13-13-13-13-13-13-13-------13-13----|    |
E|-------------------------------------------------|    |
                                                        |
  1  ^  ^  ^  2  ^  ^  ^  3  ^  ^  ^  4  ^  ^  ^        |
G|-------------------------------------------------|   /
D|-11-11-11-11-11-11-11-11-11-11-11-13-13-11-11\\\\|  /
A|-------------------------------------------------| /
E|-------------------------------------------------|/


Chorus:
(0:59-1:23)
  1  ^  ^  ^  2  ^  ^  ^  3  ^  ^  ^  4  ^  ^  ^    
G|-------------------------------------------------|\
D|-------------------------------------------------| \
A|-6--6--6--6--6--6--6--6--6--6--6--8--8--6--6--8--|  \
E|-------------------------------------------------|   \
                                                        |
  1  ^  ^  ^  2  ^  ^  ^  3  ^  ^  ^  4  ^  ^  ^        |
G|-------------------------------------------------|    |
D|-------------------------------------------------|    |
A|-9--9--9--9--9--9--9--9--9--9--9--11-11-9--9--11-|    |
E|-------------------------------------------------|    |
                                                      (x2)
  1  ^  ^  ^  2  ^  ^  ^  3  ^  ^  ^  4  ^  ^  ^        |
G|-------------------------------------------------|    |
D|----------------------------------10-10-------10-|    |
A|-13-13-13-13-13-13-13-13-13-13-13-------13-13----|    |
E|-------------------------------------------------|    |
                                                        |
  1  ^  ^  ^  2  ^  ^  ^  3  ^  ^  ^  4  ^  ^  ^        |
G|-------------------------------------------------|   /
D|-11-11-11-11-11-11-11-11-11-11-11-13-13-11-11\\\\|  /
A|-------------------------------------------------| /
E|-------------------------------------------------|/


Post-Chorus:
(1:23-1:26)
  1  ^  ^  ^  2  ^  ^  ^  3  ^  ^  ^  4  ^  ^  ^
G|-------------------------------------------------|
D|-------------------------------------------------|
A|-4~~~~~~~~~~~~~~~~~~~~~~~~~~~~~~~~~~~~-----------|
E|-------------------------------------------------|


Verse 2:
(1:26-1:38)
[No bass]

(1:38-2:03)
  1  ^  ^  ^  2  ^  ^  ^  3  ^  ^  ^  4  ^  ^  ^    
G|-------------------------------------------------|\
D|-------------------------------------------------| \
A|-6--6--6--6--6--6--6--6--6--6--6--8--8--6--6--8--|  \
E|-------------------------------------------------|   \
                                                        |
  1  ^  ^  ^  2  ^  ^  ^  3  ^  ^  ^  4  ^  ^  ^        |
G|-------------------------------------------------|    |
D|-------------------------------------------------|    |
A|-9--9--9--9--9--9--9--9--9--9--9--11-11-9--9--11-|    |
E|-------------------------------------------------|    |
                                                      (x2)
  1  ^  ^  ^  2  ^  ^  ^  3  ^  ^  ^  4  ^  ^  ^        |
G|-------------------------------------------------|    |
D|----------------------------------10-10-------10-|    |
A|-13-13-13-13-13-13-13-13-13-13-13-------13-13----|    |
E|-------------------------------------------------|    |
                                                        |
  1  ^  ^  ^  2  ^  ^  ^  3  ^  ^  ^  4  ^  ^  ^        |
G|-------------------------------------------------|   /
D|-11-11-11-11-11-11-11-11-11-11-11-13-13-11-11\\\\|  /
A|-------------------------------------------------| /
E|-------------------------------------------------|/


Chorus 2:
(2:03-2:27)
  1  ^  ^  ^  2  ^  ^  ^  3  ^  ^  ^  4  ^  ^  ^    
G|-------------------------------------------------|\
D|-------------------------------------------------| \
A|-6--6--6--6--6--6--6--6--6--6--6--8--8--6--6--8--|  \
E|-------------------------------------------------|   \
                                                        |
  1  ^  ^  ^  2  ^  ^  ^  3  ^  ^  ^  4  ^  ^  ^        |
G|-------------------------------------------------|    |
D|-------------------------------------------------|    |
A|-9--9--9--9--9--9--9--9--9--9--9--11-11-9--9--11-|    |
E|-------------------------------------------------|    |
                                                      (x2)
  1  ^  ^  ^  2  ^  ^  ^  3  ^  ^  ^  4  ^  ^  ^        |
G|-------------------------------------------------|    |
D|----------------------------------10-10-------10-|    |
A|-13-13-13-13-13-13-13-13-13-13-13-------13-13----|    |
E|-------------------------------------------------|    |
                                                        |
  1  ^  ^  ^  2  ^  ^  ^  3  ^  ^  ^  4  ^  ^  ^        |
G|-------------------------------------------------|   /
D|-11-11-11-11-11-11-11-11-11-11-11-13-13-11-11\\\\|  /
A|-------------------------------------------------| /
E|-------------------------------------------------|/



Bridge: **
(2:27-2:50)
  1  ^  ^  ^  2  ^  ^  ^  3  ^  ^  ^  4  ^  ^  ^
G|-------------------------------------------------|\
D|-------------------------------------------------| \
A|-8--8--8--6-----6--6--8-----8--8--9-----9--9--11-|  \
E|-------------------------------------------------|   |
                                                     (x4)
  1  ^  ^  ^  2  ^  ^  ^  3  ^  ^  ^  4  ^  ^  ^       |
G|-------------------------------------------------|   |
D|-------------------------------------------------|  /
A|----11-11-9-----9--9--13----13-13-15----15-15-15-| /
E|-------------------------------------------------|/

** this part may be played an octave lower but that would
require you to use Eb standard tuning which can be a lot 
of work if you’re lazy like me. I’ll put a tab for it
below at the end of this tab.


Chorus 3:
(2:50-3:26)
  1  ^  ^  ^  2  ^  ^  ^  3  ^  ^  ^  4  ^  ^  ^    
G|-------------------------------------------------|\
D|-------------------------------------------------| \
A|-6--6--6--6--6--6--6--6--6--6--6--8--8--6--6--8--|  \
E|-------------------------------------------------|   \
                                                        |
  1  ^  ^  ^  2  ^  ^  ^  3  ^  ^  ^  4  ^  ^  ^        |
G|-------------------------------------------------|    |
D|-------------------------------------------------|    |
A|-9--9--9--9--9--9--9--9--9--9--9--11-11-9--9--11-|    |
E|-------------------------------------------------|    |
                                                      (x3)
  1  ^  ^  ^  2  ^  ^  ^  3  ^  ^  ^  4  ^  ^  ^        |
G|-------------------------------------------------|    |
D|----------------------------------10-10-------10-|    |
A|-13-13-13-13-13-13-13-13-13-13-13-------13-13----|    |
E|-------------------------------------------------|    |
                                                        |
  1  ^  ^  ^  2  ^  ^  ^  3  ^  ^  ^  4  ^  ^  ^        |
G|-------------------------------------------------|   /
D|-11-11-11-11-11-11-11-11-11-11-11-13-13-11-11\\\\|  /
A|-------------------------------------------------| /
E|-------------------------------------------------|/


Post-Chorus/Outro:
(3:26-3:48)
  1 ^ ^ ^ 2 ^ ^ ^ 3 ^ ^ ^ 4 ^ ^ ^   1 ^ ^ ^ 2 ^ ^ ^ 3 ^ ^ ^ 4 ^ ^ ^
G|---------------------------------|---------------------------------|
D|---------------------------------|---------------------------------| (x3)
A|-4~~~~~~~~~~~~~~~~~~~~~~~~---4///|/8~~~~~~~~~~~~~~~~~~~~~~~~---8\\\|
E|---------------------------------|---------------------------------|

End!

************************************

| /  Slide up
| \  Slide down
| ~  Vibrato 

************************************

---------------------------------------------------------------------
Bridge Alt: Eb Tuning
(2:27-2:50)
    1  ^  ^  ^  2  ^  ^  ^  3  ^  ^  ^  4  ^  ^  ^
Gb|-------------------------------------------------|\
Db|-------------------------------------------------| \
Ab|-------------------------------------------------|  \
Eb|-2--2--2--0-----0--0--2-----2--2--3-----3--3--5--|   |
                                                      (x3)
    1  ^  ^  ^  2  ^  ^  ^  3  ^  ^  ^  4  ^  ^  ^      |
Gb|-------------------------------------------------|   |
Db|-------------------------------------------------|  /
Ab|-------------------------------------------------| /
Eb|----5--5--3-----3--3--7-----7--7--9-----9--9--9--|/

    1  ^  ^  ^  2  ^  ^  ^  3  ^  ^  ^  4  ^  ^  ^
Gb|-------------------------------------------------|
Db|-------------------------------------------------|
Ab|-9--9--9--7-----7--7--9-----9--9--10----10-10-12-|
Eb|-------------------------------------------------|
                                                   
    1  ^  ^  ^  2  ^  ^  ^  3  ^  ^  ^  4  ^  ^  ^
Gb|-------------------------------------------------|
Db|-------------------------------------------------|
Ab|----12-12-10----10-10-14----14-14-16----16-16-16-|
Eb|-------------------------------------------------|


Questions, comments, or concerns, let me know!

~Jeyqwop

            
            
Suggest correction
Creating personal tab
Creating personal tab
You can edit any tab online and save it as your Personal.

You can edit, replace or remove any tab part or add personal notes – all changes will be seen only by you.

Personal tabs can be accessed anytime from any device, even offline.
Learn more »
Give kudos to tab author, rate the tab!
1 2 3 4 5
comments
print report bad tab
guest
You may want to rate the tab now too:
select rating
Wanna post a correction for this tab? Suggest correction