Oops, an error
Loading. Please wait.

Domestic Lala tab

1,036 views 3 this week
1 commentread comment
1 2 3 4 5
x 4
add to favorites
×
Save as Personal and add changes to this tab that will be seen only by you. Learn more ›
×
You can save this tab as Personal to edit and correct it or add notes. All changes will be seen only by you. Learn more »
launch autoscroll
font size
0
reset
how to read this tab
guitar tuner
edit
Autoscroll
slow
fast
+/-
esc
set tempo
stop
Tuning: Drop D (DADGBe)

[Intro] (Clean)
(Guitar 1) 
E|---------------------------------------------------------------------------|
B|---------------------------------------------------------------------------|
G|---------------------------------------------------------------------------|
D|--------4-----------------4---------------7-----0-----7-----0--------------|    (x2)
A|----4h5---5---5-----5---5---5---5---9---9---9-----9-----9-----9------------|
D|--0---------0---0-5---5-------5--/9---9-------9-----9-----9-----9----------|

(Guitar 1) 
E|---------------------------------------------------------------------------|
B|---------------------------------------------------------------------------|
G|---------------------------------------------------------------------------|
D|--------4-----------------4---------------7-----0-----7-----0--------------|   
A|----4h5---5---5-----5---5---5---5---9---9---9-----9-----9-----9------------|
D|--0---------0---0-5---5-------5--/9---9-------9-----9-----9-----9----------| 
                                                                                    
(Guitar 2)                                                                        (x2)
E|---------------------------------------------------------------------------|
B|---------------------------------------------------------------------------|
G|---------------------------------------------------------------------------|
D|---------------------------------------------------------------------------|   
A|--0---------------2-------5------/9----------------------------------------|
D|---------------------------------------------------------------------------|

[Verse 1] (Distortion)
(Guitar 1)
E|---------------------------------------------------------------------------|
B|---------------------------------------------------------------------------|
G|---------------------------------------------------------------------------|
D|--0-0------9-9------8-8-------5-5-5-5-5-5-5--------------------------------|    (x2)
A|--0-0------9-9------8-8-------5-5-5-5-5-5-5--------------------------------|
D|--0-0------9-9------8-8-------5-5-5-5-5-5-5--------------------------------|

(Guitar 1)
E|---------------------------------------------------------------------------|
B|---------------------------------------------------------------------------|
G|---------------------------------------------------------------------------|
D|--0-0------9-9------8-8-------5-5-5-5-5-5-5--------------------------------|    
A|--0-0------9-9------8-8-------5-5-5-5-5-5-5--------------------------------|
D|--0-0------9-9------8-8-------5-5-5-5-5-5-5--------------------------------|
                                                                                   
(Guitar 2) 
(Palm mute)
E|---------------------------------------------------------------------------|
B|---------------------------------------------------------------------------|
G|---------------------------------------------------------------------------|
D|---------------------------------------------------------------------------|   
A|--5-5-5-5-5-5-5-5-5-5-5-5-5-5-5-5-5-5-5-5-5--------------------------------|
D|---------------------------------------------------------------------------|

(Guitar 1)
E|---------------------------------------------------------------------------|
B|---------------------------------------------------------------------------|
G|---------------------------------------------------------------------------|
D|--0-0------9-9------8-8-------5-5-5-5-5-5-5--------------------------------|    
A|--0-0------9-9------8-8-------5-5-5-5-5-5-5--------------------------------|
D|--0-0------9-9------8-8-------5-5-5-5-5-5-5--------------------------------|
                                                                                  
(Guitar 2)
E|---------------------------------------------------------------------------|
B|---------------------------------------------------------------------------|
G|--x-x-x-x-x-x-x-x-x-x-x-x-x-x-x-x-x-x-x-x-x--------------------------------|
D|--x-x-x-x-x-x-x-x-x-x-x-x-x-x-x-x-x-x-x-x-x--------------------------------|   
A|--x-x-x-x-x-x-x-x-x-x-x-x-x-x-x-x-x-x-x-x-x--------------------------------|
D|--x-x-x-x-x-x-x-x-x-x-x-x-x-x-x-x-x-x-x-x-x--------------------------------|

[Chorus] (x2)
(Guitar 1)
E|---------------------------------------------------------------------------|
B|---------------------------------------------------------------------------|
G|---------------------------------------------------------------------------|
D|----4-4-4-4-4-4-4-4-4-4-4-4-4-4-4-9---9-9-9-9-9-9-9-9-9-9-9-9-9-9-9-9------|    
A|----5-5-5-5-5-5-5-5-5-5-5-5-5-5-5-9---9-9-9-9-9-9-9-9-9-9-9-9-9-9-9-9------|
D|----0-0-0-0-0-0-0-0-5-5-5-5-5-5-5-9---9-9-9-9-9-9-9-9-9-9-9-9-9-9-9-9------|
                                                                                   
(Guitar 2)
E|---------------------------------------------------------------------------|
B|---------------------------------------------------------------------------|
G|----2---------------4-------7---------11-----------------------------------|
D|---------------------------------------------------------------------------|    
A|---------------------------------------------------------------------------|
D|---------------------------------------------------------------------------|
 
[Bass] 
G|---------------------------------------------------------------------------|
D|---------------------------------------------------------------------------|
A|---------------------------------------------------------------------------|
D|----0-0-0-0-0-0-0-0-5-5-5-5-5-5-5-9---9-9-9-9-9-9-9-9-9-9-9-9-9-9-9-9------|

[Verse 2]
(Guitar 1)
E|---------------------------------------------------------------------------|
B|---------------------------------------------------------------------------|
G|---------------------------------------------------------------------------|
D|--0-0------9-9------8-8-------5-5-5-5-5-5-5--------------------------------|    (x2)
A|--0-0------9-9------8-8-------5-5-5-5-5-5-5--------------------------------|
D|--0-0------9-9------8-8-------5-5-5-5-5-5-5--------------------------------|

(Guitar 1) 
E|---------------------------------------------------------------------------|
B|---------------------------------------------------------------------------|
G|---------------------------------------------------------------------------|
D|--0-0-0-0-0-0-0-0-9-9-9-9-9-9-9-9-8-8-8-8-8-8-8-8-8-5-5-5-5-5-5-5----------|    (x2)
A|--0-0-0-0-0-0-0-0-9-9-9-9-9-9-9-9-8-8-8-8-8-8-8-8-8-5-5-5-5-5-5-5----------|
D|--0-0-0-0-0-0-0-0-9-9-9-9-9-9-9-9-8-8-8-8-8-8-8-8-8-5-5-5-5-5-5-5----------|

[Chorus] (x4)
(Guitar 1)
E|---------------------------------------------------------------------------|
B|---------------------------------------------------------------------------|
G|---------------------------------------------------------------------------|
D|----4-4-4-4-4-4-4-4-4-4-4-4-4-4-4-9---9-9-9-9-9-9-9-9-9-9-9-9-9-9-9-9------|    
A|----5-5-5-5-5-5-5-5-5-5-5-5-5-5-5-9---9-9-9-9-9-9-9-9-9-9-9-9-9-9-9-9------|
D|----0-0-0-0-0-0-0-0-5-5-5-5-5-5-5-9---9-9-9-9-9-9-9-9-9-9-9-9-9-9-9-9------|
                                                                                   
(Guitar 2)
E|---------------------------------------------------------------------------|
B|---------------------------------------------------------------------------|
G|----2---------------4-------7---------11-----------------------------------|
D|---------------------------------------------------------------------------|    
A|---------------------------------------------------------------------------|
D|---------------------------------------------------------------------------|
 
[Bass] 
G|---------------------------------------------------------------------------|
D|---------------------------------------------------------------------------|
A|---------------------------------------------------------------------------|
D|----0-0-0-0-0-0-0-0-5-5-5-5-5-5-5-9---9-9-9-9-9-9-9-9-9-9-9-9-9-9-9-9------|

[Bridge] 
(Both Guitar 1 & 2 Clean)
(Guitar 1)
E|---------------------------------------------------------------------------|
B|---------------------------------------------------------------------------|
G|---------------------------------------------------------------------------|
D|--------4-----------------4---------------7-----0-----7-----0--------------|    (x2)
A|----4h5---5---5-----5---5---5---5---9---9---9-----9-----9-----9------------|
D|--0---------0---0-5---5-------5--/9---9-------9-----9-----9-----9----------|

(Guitar 1)
E|---------------------------------------------------------------------------|
B|---------------------------------------------------------------------------|
G|---------------------------------------------------------------------------|
D|--4-4-4-4-4-4-4-4-4-4-4-4-4-4-4-4-4-4-4-4-4-4-4-4--4--4--4--4--4--4--4--4--|    
A|--4-4-4-4-4-4-4-5-5-5-5-5-5-5-5-5-4-4-4-4-4-4-4-5--5--5--5--5--5--5--5--5--|
D|--0-0-0-0-0-0-0-0-0-0-0-0-0-0-0-0-0-0-0-0-0-0-0-0--0--0--0--0--0--0--0--0--|
                                                                                
(Guitar 2)                                                                       (x6) 
E|---------------------------------------------------------------------------|
B|---------------------------------------------------------------------------|
G|--x-x-x-x-x-x-x-x-x-x-x-x-x-x-x-x-x-x-x-x-x-x-x-x--x--x--x--x--x--x--x--x--|
D|--x-x-x-x-x-x-x-x-x-x-x-x-x-x-x-x-x-x-x-x-x-x-x-x--x--x--x--x--x--x--x--x--|
A|--4-4-4-4-4-4-4-5-5-5-5-5-5-5-5-5-9-9-9-9-9-9-9-10-10-10-10-10-10-10-10-10-|
D|--x-x-x-x-x-x-x-x-x-x-x-x-x-x-x-x-x-x-x-x-x-x-x-x--x--x--x--x--x--x--x--x--|

[Outro]
(Guitar 1 and 2)
E|---------------------------------------------------------------------------|
B|---------------------------------------------------------------------------|
G|---------------------------------------------------------------------------|
D|--0-0-0-0-0-0-0-0-9-9-9-9-9-9-9-9-8-8-8-8-8-8-8-8-5-5-5-5-5-5-5-5----------|    (x2)
A|--0-0-0-0-0-0-0-0-9-9-9-9-9-9-9-9-8-8-8-8-8-8-8-8-5-5-5-5-5-5-5-5----------|
D|--0-0-0-0-0-0-0-0-9-9-9-9-9-9-9-9-8-8-8-8-8-8-8-8-5-5-5-5-5-5-5-5----------|

(Guitar 1 and 2)
E|---------------------------------------------------------------------------|
B|---------------------------------------------------------------------------|
G|---------------------------------------------------------------------------|
D|--0-0-0-0-0-0-0-0-9-9-9-9-9-9-9-9-8-8-8-8-8-8-8-8-8-5-5-5-5-5-5-5----------|    (x2)
A|--0-0-0-0-0-0-0-0-9-9-9-9-9-9-9-9-8-8-8-8-8-8-8-8-8-5-5-5-5-5-5-5----------|
D|--0-0-0-0-0-0-0-0-9-9-9-9-9-9-9-9-8-8-8-8-8-8-8-8-8-5-5-5-5-5-5-5----------|

[Chorus] (x4)
(Guitar 1)
E|---------------------------------------------------------------------------|
B|---------------------------------------------------------------------------|
G|---------------------------------------------------------------------------|
D|----4-4-4-4-4-4-4-4-4-4-4-4-4-4-4-9---9-9-9-9-9-9-9-9-9-9-9-9-9-9-9-9------|    
A|----5-5-5-5-5-5-5-5-5-5-5-5-5-5-5-9---9-9-9-9-9-9-9-9-9-9-9-9-9-9-9-9------|
D|----0-0-0-0-0-0-0-0-5-5-5-5-5-5-5-9---9-9-9-9-9-9-9-9-9-9-9-9-9-9-9-9------|
                                                                                   
(Guitar 2)
E|---------------------------------------------------------------------------|
B|---------------------------------------------------------------------------|
G|----2---------------4-------7---------11-----------------------------------|
D|---------------------------------------------------------------------------|    
A|---------------------------------------------------------------------------|
D|---------------------------------------------------------------------------|
 
[Bass] 
G|---------------------------------------------------------------------------|
D|---------------------------------------------------------------------------|
A|---------------------------------------------------------------------------|
D|----0-0-0-0-0-0-0-0-5-5-5-5-5-5-5-9---9-9-9-9-9-9-9-9-9-9-9-9-9-9-9-9------|



************************************

| h  Hammer-on
| /  Slide up
| x  Dead note

************************************

            
            
Suggest correction
Creating personal tab
Creating personal tab
You can edit any tab online and save it as your Personal.

You can edit, replace or remove any tab part or add personal notes – all changes will be seen only by you.

Personal tabs can be accessed anytime from any device, even offline.
Learn more »
comments
print report bad tab
1 comment total.
0 reply
mitchell.assen 10 Jan 13, 2016 09:59 AM

perfect! thanks so much for tabbing this! any chance you could do Home Haircut?

guest
You may want to rate the tab now too:
select rating
Wanna post a correction for this tab? Suggest correction