Oops, an error
Loading. Please wait.

Dope Calypso bass

2,203 views 21 this week
4 commentsread comments
1 2 3 4 5
x 4
add to favorites
×
Save as Personal and add changes to this tab that will be seen only by you. Learn more ›
×
You can save this tab as Personal to edit and correct it or add notes. All changes will be seen only by you. Learn more »
launch autoscroll
font size
0
reset
guitar tuner
edit
Autoscroll
slow
fast
+/-
esc
set tempo
stop
----------------------------------------------------------------- 
                   Violent Soho - Dope Calypso 
-----------------------------------------------------------------  

Tabbed By: Bedforder
E-mail: Bedforder@Gmail.com
Tuning: E Standard

*Break* 


[0:21]
G|------|
D|------|
A|-9g\--|
E|------|


*Break*


[Intro]  
(0:36)
G|---------------------------------------------------------------------|
D|---------------------------------------------------------------------|
A|-9-9-9-9-9--9-9--9-9-9-9--4-4-4-4--5-5-5-5-5--5-5--5-5-5-5--2-2-2-2--|(x4)
E|---------------------------------------------------------------------|


[Verse] 
(1:05)
G|----------------------------------------------------------------------------|
D|----------------------------------------------------------------------------|
A|-5-5-5-5-5-5-5--5-5-5-5-5-5-5--5-5-5-5-5-5-5--5-5-5-5-5-5-5--5-5-5-5-5-5-5--|
E|----------------------------------------------------------------------------|

G|----------------------------------------------------------------------------|
D|----------------------------------------------------------------------------|
A|-5-5-5-5-5-5-5--5-5-5-5-5-5-5--5-5-5-5-5-5-5--9-9-9-9-9-9-9--9-9-9-9-9-9-9--|
E|----------------------------------------------------------------------------|

G|----------------------------------------------------------------------------|
D|----------------------------------------------------------------------------|
A|-5-5-5-5-5-5-5--5-5-5-5-5-5-5--5-5-5-5-5-5-5--5-5-5-5-5-5-5--5-5-5-5-5-5-5--|
E|----------------------------------------------------------------------------|

G|----------------------------------------------------------------------------|
D|----------------------------------------------------------------------------|
A|-5-5-5-5-5-5-5--9-9-9-9-9-9-9--9-9-9-9-9-9-9-10--5-5-5-5-5-5-5--5-5-5-5\----|
E|----------------------------------------------------------------------------|


[Chorus] 
(1:42)
G|---------------------------------------------------------------------|
D|---------------------------------------------------------------------|
A|-9-9-9-9-9--9-9--9-9-9-9--4-4-4-4--5-5-5-5-5--5-5--5-5-5-5--2-2-2-2--|(x2)
E|---------------------------------------------------------------------|

G|-------------------------------------------------------------|
D|-------------------------------------------------------------|
A|-5-5-5-5-5--------------------5-5-5-5-5----------------------| x2
E|-----------7-7--7-7-7-3-3-3-3-------------7-7--7-7-7-3-3-3-3-|


[Verse] 
(2:12)
G|---------------------------------------------------------------------|
D|---------------------------------------------------------------------|
A|-9-9-9-9-9--9-9--9-9-9-9--4-4-4-4--5-5-5-5-5--5-5--5-5-5-5--2-2-2-2--|(x2)
E|---------------------------------------------------------------------|

G|----------------------------------------------------------------------------|
D|----------------------------------------------------------------------------|
A|-5-5-5-5-5-5-5--5-5-5-5-5-5-5--5-5-5-5-5-5-5--5-5-5-5-5-5-5--5-5-5-5-5-5-5--|
E|----------------------------------------------------------------------------|

G|----------------------------------------------------------------------------|
D|----------------------------------------------------------------------------|
A|-5-5-5-5-5-5-5--5-5-5-5-5-5-5--5-5-5-5-5-5-5--9-9-9-9-9-9-9--9-9-9-9-9-9-9--|
E|----------------------------------------------------------------------------|

G|----------------------------------------------------------------------------|
D|----------------------------------------------------------------------------|
A|-5-5-5-5-5-5-5--5-5-5-5-5-5-5--5-5-5-5-5-5-5--5-5-5-5-5-5-5--5-5-5-5-5-5-5--|
E|----------------------------------------------------------------------------|

G|----------------------------------------------------------------------------|
D|----------------------------------------------------------------------------|
A|-5-5-5-5-5-5-5--9-9-9-9-9-9-9--9-9-9-9-9-9-9-10--5-5-5-5-5-5-5--5-5-5-5\----|
E|----------------------------------------------------------------------------|


[Chorus] 
(2:56)
G|---------------------------------------------------------------------|
D|---------------------------------------------------------------------|
A|-9-9-9-9-9--9-9--9-9-9-9--4-4-4-4--5-5-5-5-5--5-5--5-5-5-5--2-2-2-2--|(x2)
E|---------------------------------------------------------------------|

G|-------------------------------------------------------------|
D|-------------------------------------------------------------|
A|-5-5-5-5-5--------------------5-5-5-5-5----------------------| x2
E|-----------7-7--7-7-7-3-3-3-3-------------7-7--7-7-7-3-3-3-3-|


*Break*


[Chorus]
(4:02)
G|---------------------------------------------------------------------|
D|---------------------------------------------------------------------|
A|-9-9-9-9-9--9-9--9-9-9-9--4-4-4-4--5-5-5-5-5--5-5--5-5-5-5--2-2-2-2--|(x6)
E|---------------------------------------------------------------------|

************************************

| \  Slide down
 
************************************

            
            
Suggest correction
Creating personal tab
Creating personal tab
You can edit any tab online and save it as your Personal.

You can edit, replace or remove any tab part or add personal notes – all changes will be seen only by you.

Personal tabs can be accessed anytime from any device, even offline.
Learn more »
comments
print report bad tab
4 comments total. Showing first comments.
+1 reply
jonathan_mezaaguilar 10 Jul 22, 2016 11:32 AM

dud finaly dope calypso, i need to covered in chrome if u can well be fucking awesome

+1 reply
maxwelldibben 10 Aug 21, 2016 05:51 AM

In the pre chorus he plays an open E tuned to drop D instead of the 9th fret

guest
You may want to rate the tab now too:
select rating
Wanna post a correction for this tab? Suggest correction