Oops, an error
Loading. Please wait.

How To Taste tab

version 2
version 2

Whole song

1,261 views 24 this week
no commentswrite comment
1 2 3 4 5
x 3
add to favorites
×
Save as Personal and add changes to this tab that will be seen only by you. Learn more ›
×
You can save this tab as Personal to edit and correct it or add notes. All changes will be seen only by you. Learn more »
launch autoscroll
font size
0
reset
how to read this tab
guitar tuner
edit
Autoscroll
slow
fast
+/-
esc
set tempo
stop
Violent Soho
“How to Taste”
WACO (2016)

Tuning - Drop D (DADGBe)

New album dropped this weekend, and this first track
is fantastic! The intro/outro riff is a little tricky,
but other than that it is very straight forward.
Enjoy, Jeyqwop


Intro: (clean)
(0:00-0:12)
  1 ^ ^ ^ 2 ^ ^ ^ 3 ^ ^ ^ 4 ^ ^ ^   1 ^ ^ ^ 2 ^ ^ ^ 3 ^ ^ ^ 4 ^ ^ ^
|---------------------------------|---------------------------------|
|---------------------------------|---------------------------------|
|---------7~~---7~~---------7---0-|---------7~~---7~~---------7-----|
|-0h5h7/9-----9-----0h5h7/9---9---|-0h5h7/9-----9-----0h5h7/9---9~~-|
|---------------------------------|---------------------------------|
|---------------------------------|---------------------------------|

  1 ^ ^ ^ 2 ^ ^ ^ 3 ^ ^ ^ 4 ^ ^ ^   1 ^ ^ ^ 2 ^ ^ ^ 3 ^ ^ ^ 4 ^ ^ ^
|---------------------------------|---------------------------------|
|-8-----8-----7-----7-----7-----7-|-8-----8-----7-----7-------------|
|---0-----0-----0-----0-----0-----|---0-----0-----0-----0-----------|
|-----5-----5-----5-----5-----5---|-----5-----5-----5-----5---------|
|---------------------------------|---------------------------------|
|---------------------------------|---------------------------------|


Heavy Riff (x3)
(0:13-0:59)
    1 ^ ^ ^ 2 ^ ^ ^ 3 ^ ^ ^ 4 ^ ^ ^   1 ^ ^ ^ 2 ^ ^ ^ 3 ^ ^ ^ 4 ^ ^ ^
||----------------------------------|---------------------------------|
||----------------------------------|---------------------------------|
||o---------------------------------|---------------------------------|
||o-5-5---5-5---5-5---5-5-5-5-5-5-9-|-5-5---5-5---5-5---5-5-5-5-5-5-9-|
||--5-5---5-5---5-5---5-5-5-5-5-5-9-|-5-5---5-5---5-5---5-5-5-5-5-5-9-|
||--5-5---5-5---5-5---5-5-5-5-5-5-9-|-5-5---5-5---5-5---5-5-5-5-5-5-9-|

  1 ^ ^ ^ 2 ^ ^ ^ 3 ^ ^ ^ 4 ^ ^ ^   1 ^ ^ ^ 2 ^ ^ ^ 3 ^ ^ ^ 4 ^ ^ ^
|---------------------------------|---------------------------------|
|---------------------------------|---------------------------------|
|---------------------------------|---------------------------------|
|-5-5---5-5---5-5---5-5-5-5-5-5-9-|-5-5---5-5---5-5---5-5-5---5-5---|
|-5-5---5-5---5-5---5-5-5-5-5-5-9-|-5-5---5-5---5-5---5-5-5---5-5---|
|-5-5---5-5---5-5---5-5-5-5-5-5-9-|-5-5---5-5---5-5---5-5-5---5-5---|

  1  ^  ^  ^  2  ^  ^  ^  3  ^  ^  ^  4  ^  ^  ^    
|--------------------------------------------------||
|--------------------------------------------------||
|-------------------------------------------------o||
|-2--2-----2—-2-----2--10----10-10-10----10-10-10-o||
|-2--2-----2--2-----2--10----10-10-10----10-10-10--||
|-2—-2-----2--2-----2--10----10-10-10----10-10-10--||

(1:00-1:05)
  1  ^  ^  ^  2  ^  ^  ^  3  ^  ^  ^  4  ^  ^  ^    
|-------------------------------------------------|
|-------------------------------------------------|
|-------------------------------------------------|
|-5--5-----5—-5-----5--5-----5--5--5--5--5--5--5--|
|-5--5-----5--5-----5--5-----5--5--5--5--5--5--5--|
|-5—-5-----5--5-----5--5-----5--5--5--5--5--5--5--|

  1  ^  ^  ^  2  ^  ^  ^  3  ^  ^  ^  4  ^  ^  ^    
|-------------------------------------------------|
|-------------------------------------------------|
|-------------------------------------------------|
|-2--2-----2—-2-----2--10----10-10-10----10-10-10-|
|-2--2-----2--2-----2--10----10-10-10----10-10-10-|
|-2—-2-----2--2-----2--10----10-10-10----10-10-10-|


Clean Mid-riff (x2)
(1:06-1:24)
    1 ^ ^ ^ 2 ^ ^ ^ 3 ^ ^ ^ 4 ^ ^ ^   1 ^ ^ ^ 2 ^ ^ ^ 3 ^ ^ ^ 4 ^ ^ ^
||----------------------------------|---------------------------------|
||----------------------------------|---------------------------------|
||o---------------------------------|---------------------------------|
||o-5-5-5-5-5-5-5-5-5-5-5-5-5-5-5-5-|-5-5-5-5-5-5-5-5-5-5-5-5-5-5-5-5-|
||--5-5-5-5-5-5-5-5-5-5-5-5-5-5-5-5-|-5-5-5-5-5-5-5-5-5-5-5-5-5-5-5-5-|
||--5-5-5-5-5-5-5-5-5-5-5-5-5-5-5-5-|-5-5-5-5-5-5-5-5-5-5-5-5-5-5-5-5-|
    * * * * * * * * * * * * * * * *   * * * * * * * * * * * * * * * *

  1  ^  ^  ^  2  ^  ^  ^  3  ^  ^  ^  4  ^  ^  ^    
|--------------------------------------------------||
|--------------------------------------------------||
|-------------------------------------------------o||
|-9~~~--9--9--9—-9--9--9--10-10-10-10-10-10-10-10-o||
|-9~~~--9--9--9--9--9--9--10-10-10-10-10-10-10-10--||
|-9~~~--9--9--9--9--9--9--10-10-10-10-10-10-10-10--||
        *  *  *  *  *  *  *  *  *  *  *  *  *  *  

(1:25-1:26)
  1  ^  ^  ^  2  ^  ^  ^  3  ^  ^  ^  4  ^  ^  ^    
|-------------------------------------------------|
|-------------------------------------------------|
|-------------------------------------------------|
|-5--5--5--5--5--5\\\\\---------------------------|
|-5--5--5--5--5--5\\\\\---------------------------|
|-5--5--5--5--5--5\\\\\---------------------------|
  *  *  *  *  *  *

Heavy Riff Pt. 2 (x2)
(1:26-1:57)
    1 ^ ^ ^ 2 ^ ^ ^ 3 ^ ^ ^ 4 ^ ^ ^   1 ^ ^ ^ 2 ^ ^ ^ 3 ^ ^ ^ 4 ^ ^ ^
||----------------------------------|---------------------------------|
||----------------------------------|---------------------------------|
||o---------------------------------|---------------------------------|
||o-5-5---5-5---5-5---5-5-5-5-5-5-9-|-5-5---5-5---5-5---5-5-5-5-5-5-9-|
||--5-5---5-5---5-5---5-5-5-5-5-5-9-|-5-5---5-5---5-5---5-5-5-5-5-5-9-|
||--5-5---5-5---5-5---5-5-5-5-5-5-9-|-5-5---5-5---5-5---5-5-5-5-5-5-9-|

  1 ^ ^ ^ 2 ^ ^ ^ 3 ^ ^ ^ 4 ^ ^ ^   1 ^ ^ ^ 2 ^ ^ ^ 3 ^ ^ ^ 4 ^ ^ ^
|---------------------------------|---------------------------------|
|---------------------------------|---------------------------------|
|---------------------------------|---------------------------------|
|-5-5---5-5---5-5---5-5-5-5-5-5-9-|-5-5---5-5---5-5---5-5-5---5-5---|
|-5-5---5-5---5-5---5-5-5-5-5-5-9-|-5-5---5-5---5-5---5-5-5---5-5---|
|-5-5---5-5---5-5---5-5-5-5-5-5-9-|-5-5---5-5---5-5---5-5-5---5-5---|

  1  ^  ^  ^  2  ^  ^  ^  3  ^  ^  ^  4  ^  ^  ^    
|--------------------------------------------------||
|--------------------------------------------------||
|-------------------------------------------------o||
|-2--2-----2—-2-----2--10----10-10-10----10-10-10-o||
|-2--2-----2--2-----2--10----10-10-10----10-10-10--||
|-2—-2-----2--2-----2--10----10-10-10----10-10-10--||

(1:58-2:03)
  1  ^  ^  ^  2  ^  ^  ^  3  ^  ^  ^  4  ^  ^  ^    
|-------------------------------------------------|
|-------------------------------------------------|
|-------------------------------------------------|
|-5--5-----5—-5-----5--5-----5--5--5--5--5--5--5--|
|-5--5-----5--5-----5--5-----5--5--5--5--5--5--5--|
|-5—-5-----5--5-----5--5-----5--5--5--5--5--5--5--|

  1  ^  ^  ^  2  ^  ^  ^  3  ^  ^  ^  4  ^  ^  ^    
|-------------------------------------------------|
|-------------------------------------------------|
|-------------------------------------------------|
|-2--2-----2—-2-----2--10----10-10-10----10-10-10-|
|-2--2-----2--2-----2--10----10-10-10----10-10-10-|
|-2—-2-----2--2-----2--10----10-10-10----10-10-10-|


Clean Mid-riff Pt. 2 (x2)
(2:04-2:23)
    1 ^ ^ ^ 2 ^ ^ ^ 3 ^ ^ ^ 4 ^ ^ ^   1 ^ ^ ^ 2 ^ ^ ^ 3 ^ ^ ^ 4 ^ ^ ^
||----------------------------------|---------------------------------|
||----------------------------------|---------------------------------|
||o---------------------------------|---------------------------------|
||o-5-5-5-5-5-5-5-5-5-5-5-5-5-5-5-5-|-5-5-5-5-5-5-5-5-5-5-5-5-5-5-5-5-|
||--5-5-5-5-5-5-5-5-5-5-5-5-5-5-5-5-|-5-5-5-5-5-5-5-5-5-5-5-5-5-5-5-5-|
||--5-5-5-5-5-5-5-5-5-5-5-5-5-5-5-5-|-5-5-5-5-5-5-5-5-5-5-5-5-5-5-5-5-|
    * * * * * * * * * * * * * * * *   * * * * * * * * * * * * * * * *

  1  ^  ^  ^  2  ^  ^  ^  3  ^  ^  ^  4  ^  ^  ^    
|--------------------------------------------------||
|--------------------------------------------------||
|-------------------------------------------------o||
|-9~~~--9--9--9—-9--9--9--10-10-10-10-10-10-10-10-o||
|-9~~~--9--9--9--9--9--9--10-10-10-10-10-10-10-10--||
|-9~~~--9--9--9--9--9--9--10-10-10-10-10-10-10-10--||
        *  *  *  *  *  *  *  *  *  *  *  *  *  *  

(2:23-2:24)
  1  ^  ^  ^  2  ^  ^  ^  3  ^  ^  ^  4  ^  ^  ^    
|-------------------------------------------------|
|-------------------------------------------------|
|-------------------------------------------------|
|-------------------------------------------------|
|-------------------------------------------------|
|-------------------------------------------------|


Bridge (x5) (first rep clean, remaining reps distorted)
(2:25-2:55)
    1  ^  ^  ^  2  ^  ^  ^  3  ^  ^  ^  4  ^  ^  ^    
||--------------------------------------------------|
||--------------------------------------------------|
||o-------------------------------------------------|
||o-2--2--2--4--4--4--5--5--5--4--4--4--4--4--4--4--|
||--2--2--2--4--4--4--5--5--5--4--4--4--4--4--4--4--|
||--2--2--2--4--4--4--5--5--5--4--4--4--4--4--4--4--|

  1  ^  ^  ^  2  ^  ^  ^  3  ^  ^  ^  4  ^  ^  ^    
|--------------------------------------------------||
|--------------------------------------------------||
|-------------------------------------------------o||
|-9--9--9--5--5--5--10-10-10-4--4--4--4--4--4--4--o||
|-9--9--9--5--5--5--10-10-10-4--4--4--4--4--4--4---||
|-9--9--9--5--5--5--10-10-10-4--4--4--4--4--4--4---||


Heavy Riff Pt. 3 (x3)
(2:56-3:11)
  1 ^ ^ ^ 2 ^ ^ ^ 3 ^ ^ ^ 4 ^ ^ ^   1 ^ ^ ^ 2 ^ ^ ^ 3 ^ ^ ^ 4 ^ ^ ^
|---------------------------------|---------------------------------|
|---------------------------------|---------------------------------|
|---------------------------------|---------------------------------|
|-5-5---5-5---5-5---5-5-5-5-5-5-9-|-5-5---5-5---5-5---5-5-5-5-5-5-9-|
|-5-5---5-5---5-5---5-5-5-5-5-5-9-|-5-5---5-5---5-5---5-5-5-5-5-5-9-|
|-5-5---5-5---5-5---5-5-5-5-5-5-9-|-5-5---5-5---5-5---5-5-5-5-5-5-9-|

  1 ^ ^ ^ 2 ^ ^ ^ 3 ^ ^ ^ 4 ^ ^ ^   1 ^ ^ ^ 2 ^ ^ ^ 3 ^ ^ ^ 4 ^ ^ ^
|---------------------------------|---------------------------------|
|---------------------------------|---------------------------------|
|---------------------------------|---------------------------------|
|-5-5---5-5---5-5---5-5-5-5-5-5-9-|-5-5---5-5---5-5---5-5-5---5-5---|
|-5-5---5-5---5-5---5-5-5-5-5-5-9-|-5-5---5-5---5-5---5-5-5---5-5---|
|-5-5---5-5---5-5---5-5-5-5-5-5-9-|-5-5---5-5---5-5---5-5-5---5-5---|

  1  ^  ^  ^  2  ^  ^  ^  3  ^  ^  ^  4  ^  ^  ^    
|-------------------------------------------------|
|-------------------------------------------------|
|-------------------------------------------------|
|-2--2-----2—-2-----2--10----10-10-10----10-10-10-|
|-2--2-----2--2-----2--10----10-10-10----10-10-10-|
|-2—-2-----2--2-----2--10----10-10-10----10-10-10-|

(3:11-3:29) (x3)
    1  ^  ^  ^  2  ^  ^  ^  3  ^  ^  ^  4  ^  ^  ^    
||--------------------------------------------------|
||--------------------------------------------------|
||o-------------------------------------------------|
||o-5--5-----5—-5-----5--5-----5--5--5--5--5--5--5--|
||--5--5-----5--5-----5--5-----5--5--5--5--5--5--5--|
||--5—-5-----5--5-----5--5-----5--5--5--5--5--5--5--|

  1  ^  ^  ^  2  ^  ^  ^  3  ^  ^  ^  4  ^  ^  ^    
|--------------------------------------------------||
|--------------------------------------------------||
|-------------------------------------------------o||
|-2--2-----2—-2-----2--10----10-10-10----10-10-10-o||
|-2--2-----2--2-----2--10----10-10-10----10-10-10--||
|-2—-2-----2--2-----2--10----10-10-10----10-10-10--||


Outro: (x3) (clean)
(3:30-4:12)
    1 ^ ^ ^ 2 ^ ^ ^ 3 ^ ^ ^ 4 ^ ^ ^   1 ^ ^ ^ 2 ^ ^ ^ 3 ^ ^ ^ 4 ^ ^ ^
||----------------------------------|---------------------------------|
||----------------------------------|---------------------------------|
||o---------7~~---7~~---------7---0-|---------7~~---7~~---------7-----|
||o-0h5h7/9-----9-----0h5h7/9---9---|-0h5h7/9-----9-----0h5h7/9---9~~-|
||----------------------------------|---------------------------------|
||----------------------------------|---------------------------------|

  1 ^ ^ ^ 2 ^ ^ ^ 3 ^ ^ ^ 4 ^ ^ ^   1 ^ ^ ^ 2 ^ ^ ^ 3 ^ ^ ^ 4 ^ ^ ^
|---------------------------------|----------------------------------||
|-8-----8-----7-----7-----7-----7-|-8-----8-----7-----7-----7-----7--||
|---0-----0-----0-----0-----0-----|---0-----0-----0-----0-----0-----o||
|-----5-----5-----5-----5-----5---|-----5-----5-----5-----5-----5---o||
|---------------------------------|----------------------------------||
|---------------------------------|----------------------------------||

            
            
Suggest correction
Creating personal tab
Creating personal tab
You can edit any tab online and save it as your Personal.

You can edit, replace or remove any tab part or add personal notes – all changes will be seen only by you.

Personal tabs can be accessed anytime from any device, even offline.
Learn more »
Give kudos to tab author, rate the tab!
1 2 3 4 5
comments
print report bad tab
guest
You may want to rate the tab now too:
select rating
Wanna post a correction for this tab? Suggest correction