Oops, an error
Loading. Please wait.

Jesus Stole My Girlfriend tab

version 1
version 1

Whole song

Interactive

12,737 views 9 this week
3 commentsread comments
1 2 3 4 5
x 7
add to favorites
×
Save as Personal and add changes to this tab that will be seen only by you. Learn more ›
×
You can save this tab as Personal to edit and correct it or add notes. All changes will be seen only by you. Learn more »
launch autoscroll
font size
0
reset
how to read this tab
guitar tuner
edit
Autoscroll
slow
fast
+/-
esc
set tempo
stop
[Intro/Verse-Palm Muted] 
(Open during main riff)
E|-----------------------------------------|
B|-----------------------------------------|
G|-----------------------------------------|
D|--3333-0000-3333-0000--------------------|
A|--3333-0000-3333-0000--------------------|
D|--3333-0000-3333-0000--------------------|

[Main Riff]
E|--------------------------------------------|
B|--------------------------------------------|
G|--14-13-14-13-9-10-9-10-14-13-14-13-9-10-9--|
D|--------------------------------------------|
A|--------------------------------------------|
D|--------------------------------------------|

[Pre-Chorus]
E|-----------------------------------------|
B|-----------------------------------------|
G|-----------------------------------------|
D|--3333-0000-8888-5555--------------------|  (x2)
A|--3333-0000-8888-5555--------------------|
D|--3333-0000-8888-5555--------------------|

[Chorus]
E|-----------------------------------------|
B|-----------------------------------------|
G|-----------------------------------------|
D|--3333-0000-3333-0000--------------------|
A|--3333-0000-3333-0000--------------------|
D|--3333-0000-3333-0000--------------------|

[Bridge]
E|----------------------------------------------------------|
B|----------------------------------------------------------|
G|-------------------------------------14-13-14-13-14-13-14-|
D|---8888888888888888888888888888888------------------------|
A|---8888888888888888888888888888888------------------------|
D|---8888888888888888888888888888888------------------------|

[Outro]
E|-----------------------------------------|
B|-----------------------------------------|
G|---14-13-14-13-9-------------------------|
D|-----------------------------------------|
A|-----------------------------------------|
D|-----------------------------------------|

            
            
Suggest correction
Creating personal tab
Creating personal tab
You can edit any tab online and save it as your Personal.

You can edit, replace or remove any tab part or add personal notes – all changes will be seen only by you.

Personal tabs can be accessed anytime from any device, even offline.
Learn more »
comments
print report bad tab
3 comments total.
+1 reply
SWAS 10 Mar 30, 2010 03:32 PM

Sounds pretty good to me. Except I think the pre-chorus is played like this...

D|-3-3-X-X-0-0-X-X-|
A|-3-3-X-X-0-0-X-X-|
E|-3-3-X-X-0-0-X-X-|

And the 8 and 5 are right.

0 reply
Matt Is Legion 31 Apr 10, 2010 03:43 PM

There are actually two different versions of the song that I found on youtube. The tab I did was for the older one, and there are a few differences in the newer version.

-2 reply
Petski 10 Apr 26, 2010 07:36 PM

everything is perfect cept for the bridge is 8 5 3 2

guest
You may want to rate the tab now too:
select rating
Wanna post a correction for this tab? Suggest correction