Oops, an error
Loading. Please wait.

No Shade tab

1,981 views 3 this week
no commentswrite comment
1 2 3 4 5
x 3
add to favorites
×
Save as Personal and add changes to this tab that will be seen only by you. Learn more ›
×
You can save this tab as Personal to edit and correct it or add notes. All changes will be seen only by you. Learn more »
launch autoscroll
font size
0
reset
how to read this tab
guitar tuner
edit
Autoscroll
slow
fast
+/-
esc
set tempo
stop
[Intro/Verse]

e|----------12---------------------------------------------------------------|
B|------12------12------12---------------------------------------------------|
G|--14--------------14------14-----------------------------------------------|
D|---------------------------------------------------------------------------|
A|---------------------------------------------------------------------------|
D|---------------------------------------------------------------------------|


[Pre Chorus]

Guitar 1
e|---------12--------------12--------------12--------------12----------------|
B|-----12------12------12------12------12------12------12------12------------|
G|--14-------------14--------------14--------------14------------------------|
D|---------------------------------------------------------------------------|
A|---------------------------------------------------------------------------|
D|---------------------------------------------------------------------------| Repeat


Guitar 2
e|---------------------------------------------------------------------------|
B|---------------------------------------------------------------------------|
G|---------------------------------------------------------------------------|
D|--5--5--5--5--5--5--5--5--9--9--9--9--9--9--9--9---------------------------|
A|--5--5--5--5--5--5--5--5--9--9--9--9--9--9--9--9---------------------------|
D|--5--5--5--5--5--5--5--5--9--9--9--9--9--9--9--9---------------------------| Repeat


[Chorus]

Guitar 1
e|---------------------------------------------------------------------------|
B|---------------------------------------------------------------------------|
G|---------------------------------------------------------------------------|
D|--9--9--7--9--9--7--7-(0)-------------7------------------------------------|
A|--x--x--x--x--x--x--x--x--9--9--9--9--x--9--7--5--7------------------------|
D|--0--0--0--0--0--0--0--0--0--0--0--0--0--0--0--0--0------------------------| x3

e|---------------------------------------------------------------------------|
B|---------------------------------------------------------------------------|
G|---------------------------------------------------------------------------|
D|--9--9--7--9--9--7--7--9--9--7--7--9--9--7--7--9--9------------------------|
A|--x--x--x--x--x--x--x--x--x--x--x--x--x--x--x--x--x------------------------|
E|--0--0--0--0--0--0--0--0--0--0--0--0--0--0--0--0--0------------------------|

e|---------------------------------------------------------------------------|
B|---------------------------------------------------------------------------|
G|---------------------------------------------------------------------------|
D|--9--9--7--9--9--7--7-(0)-------------7------------------------------------|
A|--x--x--x--x--x--x--x--x--9--9--9--9--x--9--7--5--7------------------------|
D|--0--0--0--0--0--0--0--0--0--0--0--0--0--0--0--0--0------------------------| x3

e|---------------------------------------------------------------------------|
B|---------------------------------------------------------------------------|
G|---------------------------------------------------------------------------|
D|-5-5----5-5-5----5-5-5----5-5-5----5-5-5----5-5-5----5-5-5----5-5-5---(0)--|
A|-5-5----5-5-5----5-5-5----5-5-5----5-5-5----5-5-5----5-5-5----5-5-5---(0)--|
D|-5-5----5-5-5----5-5-5----5-5-5----5-5-5----5-5-5----5-5-5----5-5-5---(0)--| 


[Verse 2]

e|----------12---------------------------------------------------------------|
B|------12------12------12---------------------------------------------------|
G|--14--------------14------14-------------------------------------14\-------|
D|---------------------------------------------------------------------------|
A|---------------------------------------------------------------------------|
D|---------------------------------------------------------------------------| Repeat


[Pre Chorus]

Guitar 1
e|---------12--------------12--------------12--------------12----------------|
B|-----12------12------12------12------12------12------12------12------------|
G|--14-------------14--------------14--------------14------------------------|
D|---------------------------------------------------------------------------|
A|---------------------------------------------------------------------------|
D|---------------------------------------------------------------------------| Repeat


Guitar 2
e|---------------------------------------------------------------------------|
B|---------------------------------------------------------------------------|
G|---------------------------------------------------------------------------|
D|--5--5--5--5--5--5--5--5--9--9--9--9--9--9--9--9---------------------------|
A|--5--5--5--5--5--5--5--5--9--9--9--9--9--9--9--9---------------------------|
D|--5--5--5--5--5--5--5--5--9--9--9--9--9--9--9--9---------------------------| Repeat


[Chorus]

Guitar 2
e|---------------------------------------------------------------------------|
B|---------------------------------------------------------------------------|
G|---------------------------------------------------------------------------|
D|--9--9--7--9--9--7--7-(0)-------------7------------------------------------|
A|--x--x--x--x--x--x--x--x--9--9--9--9--x--9--7--5--7------------------------|
D|--0--0--0--0--0--0--0--0--0--0--0--0--0--0--0--0--0------------------------| x3

e|---------------------------------------------------------------------------|
B|---------------------------------------------------------------------------|
G|---------------------------------------------------------------------------|
D|--9--9--7--9--9--7--7--9--9--7--7--9--9--7--7--9--9------------------------|
A|--x--x--x--x--x--x--x--x--x--x--x--x--x--x--x--x--x------------------------|
D|--0--0--0--0--0--0--0--0--0--0--0--0--0--0--0--0--0------------------------|

e|---------------------------------------------------------------------------|
B|---------------------------------------------------------------------------|
G|---------------------------------------------------------------------------|
D|--9--9--7--9--9--7--7-(0)-------------7------------------------------------|
A|--x--x--x--x--x--x--x--x--9--9--9--9--x--9--7--5--7------------------------|
D|--0--0--0--0--0--0--0--0--0--0--0--0--0--0--0--0--0------------------------|x3


e|---------------------------------------------------------------------------|
B|---------------------------------------------------------------------------|
G|---------------------------------------------------------------------------|
D|-5-5----5-5-5----5-5-5----5-5-5----5-5-5----5-5-5----5-5-5----5-5-5\--(0)--|
A|-5-5----5-5-5----5-5-5----5-5-5----5-5-5----5-5-5----5-5-5----5-5-5\--(0)--|
D|-5-5----5-5-5----5-5-5----5-5-5----5-5-5----5-5-5----5-5-5----5-5-5\--(0)--| 


[Bridge]

Guitar 2 (clean)
e|---------------------------------------------------------------------------|
B|---------------------------------------------------------------------------|
G|---------------------------------------------------------------------------|
D|--9--9--7--9--9--7--7-(0)--------------------------------------------------|
A|--x--x--x--x--x--x--x--x--9------------------------------------------------|
D|--0--0--0--0--0--0--0--0--0------------------------------------------------|

e|---------------------------------------------------------------------------|
B|---------------------------------------------------------------------------|
G|---------------------------------------------------------------------------|
D|--9--9--7--9--9--7--7-(0)-------------7------------------------------------|
A|--x--x--x--x--x--x--x--x--9--9--9--9--x--9--7--5--7------------------------|
D|--0--0--0--0--0--0--0--0--0--0--0--0--0--0--0--0--0------------------------| Repeat

When they sing "say what you want, but..." play 
e|---------------------------------------------------------------------------|
B|---------------------------------------------------------------------------|
G|---------------------------------------------------------------------------|
D|-5-5----5-5-5----5-5-5----5-5-5----5-5-5----5-5-5----5-5-5----5-5-5-5------|
A|-5-5----5-5-5----5-5-5----5-5-5----5-5-5----5-5-5----5-5-5----5-5-5-5------|
D|-5-5----5-5-5----5-5-5----5-5-5----5-5-5----5-5-5----5-5-5----5-5-5-5------| 

Guitar 1
e|---------12--------------12--------------12--------------12----------------|
B|-----12------12------12------12------12------12------12------12------------|
G|--14-------------14--------------14--------------14------------------------|
D|---------------------------------------------------------------------------|
A|---------------------------------------------------------------------------|
D|---------------------------------------------------------------------------| x2

e|----------12--14--------------15--------------14----------12---------------|
B|------12----------12------12------12------12----------12------12-----------|
G|--14------------------14--------------14----------14-----------------------|
D|---------------------------------------------------------------------------|
A|---------------------------------------------------------------------------|
D|---------------------------------------------------------------------------|
e|---------------------------------------------------------------------------|

B|--12----------14----------15----------15------15------15------15-----------|
G|------12----------12----------12----------12------12------12---------------|
D|----------14----------14----------14---------------------------------------|
A|---------------------------------------------------------------------------|
D|---------------------------------------------------------------------------|


(Guitar 2 becomes fuzzed)

e|----------12--------------12--------------12--------------12---------------|
B|------12------12------12------12------12------12------12------12-----------|
G|--14--------------14--------------14--------------14-----------------------|
D|---------------------------------------------------------------------------|
A|---------------------------------------------------------------------------|
D|---------------------------------------------------------------------------| 

e|----------14--------------14--------------14--------------14---------------|
B|------12------12------12------12------12------12------12------12-----------|
G|--14--------------14--------------14--------------14-----------------------|
D|---------------------------------------------------------------------------|
A|---------------------------------------------------------------------------|
D|---------------------------------------------------------------------------| 

e|--15----------15--------------14--------------12--------------12-----------|
B|------12----------12------12------12------12------12------12------12-------|
G|----------14----------14--------------14--------------14-------------------|
D|---------------------------------------------------------------------------|
A|---------------------------------------------------------------------------|
D|---------------------------------------------------------------------------|

e|--15----------15----------15-14--------------14-12---------12--------------|
B|------12----------12-------------12------12--------12----------12----------|
G|----------14----------14-------------14----------------14------------------|
D|---------------------------------------------------------------------------|
A|---------------------------------------------------------------------------|
D|---------------------------------------------------------------------------|


e|----------12--------------12--------------12--------------12---------------|
B|------12------12------12------12------12------12------12------12-----------|
G|--14--------------14--------------14--------------14-----------------------|
D|---------------------------------------------------------------------------|
A|---------------------------------------------------------------------------|
D|---------------------------------------------------------------------------| 

e|----------14--------------14--------------14--------------14---------------|
B|------12------12------12------12------12------12------12------12-----------|
G|--14--------------14--------------14--------------14-----------------------|
D|---------------------------------------------------------------------------|
A|---------------------------------------------------------------------------|
D|---------------------------------------------------------------------------| 


e|--15----------15-----------x-14--------------14-12---------12--------------|
B|------12----------12-------------12------12--------12----------12----------|
G|----------14----------14-------------14----------------14------------------|
D|---------------------------------------------------------------------------|
A|---------------------------------------------------------------------------|
D|---------------------------------------------------------------------------|

e|--15----------15--------------14--------------12--------------12-----------|
B|------12----------12------12------12------12------12------12------12-------|
G|----------14----------14--------------14--------------14-------------------|
D|---------------------------------------------------------------------------|
A|---------------------------------------------------------------------------|
D|---------------------------------------------------------------------------|


e|----------12--------------12--------------12--------------12---------------|
B|------12------12------12------12------12------12------12------12-----------|
G|--14--------------14--------------14--------------14-----------------------|
D|---------------------------------------------------------------------------|
A|---------------------------------------------------------------------------|
D|---------------------------------------------------------------------------| 

e|----------14--------------14--------------14--------------14---------------|
B|------12------12------12------12------12------12------12------12-----------|
G|--14--------------14--------------14--------------14-----------------------|
D|---------------------------------------------------------------------------|
A|---------------------------------------------------------------------------|
D|---------------------------------------------------------------------------| 


e|--15----------15-----------x-14--------------14-12---------12--------------|
B|------12----------12-------------12------12--------12----------12----------|
G|----------14----------14-------------14----------------14------------------|
D|---------------------------------------------------------------------------|
A|---------------------------------------------------------------------------|
D|---------------------------------------------------------------------------|

e|--15----------15--------------14--------------12--------------12-----------|
B|------12----------12------12------12------12------12------12------12-------|
G|----------14----------14--------------14--------------14-------------------|
D|---------------------------------------------------------------------------|
A|---------------------------------------------------------------------------|
D|---------------------------------------------------------------------------|


[Outro]

Guitar 1
e|----------17--------------17--------------17--------------17---------------|
B|------12------12------12------12------12------12------12------12-----------|
G|--14--------------14--------------14--------------14-----------------------|
D|---------------------------------------------------------------------------|
A|---------------------------------------------------------------------------|
D|---------------------------------------------------------------------------| x2

e|--15----------15-----------x-14--------------14-12---------12--------------|
B|------12----------12-------------12------12--------12----------12----------|
G|----------14----------14-------------14----------------14------------------|
D|---------------------------------------------------------------------------|
A|---------------------------------------------------------------------------|
D|---------------------------------------------------------------------------|

e|--15----------15----------15----------15-----------------------------------|
B|------12----------12----------12----------12-------------------------------|
G|----------14----------14----------14----------14---------------------------|
D|---------------------------------------------------------------------------|
A|---------------------------------------------------------------------------|
E|---------------------------------------------------------------------------| x4

Guitar 2
e|---------------------------------------------------------------------------|
B|---------------------------------------------------------------------------|
G|---------------------------------------------------------------------------|
D|--9--9--7--9--9--7--7-(0)-------------7------------------------------------|
A|--x--x--x--x--x--x--x--x--9--9--9--9--x--9--7--5--7------------------------|
D|--0--0--0--0--0--0--0--0--0--0--0--0--0--0--0--0--0------------------------| x3

e|---------------------------------------------------------------------------|
B|---------------------------------------------------------------------------|
G|---------------------------------------------------------------------------|
D|-5-5----5-5-5----5-5-5----5-5-5----5-5-5----5-5-5----5-5-5----5-5-5\--(0)--|
A|-5-5----5-5-5----5-5-5----5-5-5----5-5-5----5-5-5----5-5-5----5-5-5\--(0)--|
D|-5-5----5-5-5----5-5-5----5-5-5----5-5-5----5-5-5----5-5-5----5-5-5\--(0)--| 

************************************

| x   Dead note
| (n) Ghost note
| /   Slide up
| \   Slide down

************************************

            
            
Suggest correction
Creating personal tab
Creating personal tab
You can edit any tab online and save it as your Personal.

You can edit, replace or remove any tab part or add personal notes – all changes will be seen only by you.

Personal tabs can be accessed anytime from any device, even offline.
Learn more »
Give kudos to tab author, rate the tab!
1 2 3 4 5
comments
print report bad tab
guest
You may want to rate the tab now too:
select rating
Wanna post a correction for this tab? Suggest correction