Oops, an error
Loading. Please wait.

Outsider Tab

version 4
version 4

Whole song

19 views 1 this week
no commentswrite comment
1 2 3 4 5
3 more votes to show rating
add to favorites
launch autoscroll
font size
0
reset
how to read this tab
guitar tuner
Autoscroll
slow
fast
+/-
esc
set tempo
stop
Help us to improve Ultimate-Guitar.com Take our survey!
×
Author
Difficulty
Tuning
novice
D A D G B E
I'm doing this for a last minute school project and it was rushed. So if you have any changes or improvements
you recommend just comment bellow and I'll have a look. 

Artist: Violent Soho
Album: We Don't Belong Here
Released: 2008
Genre: Alternative/Indie

Drop D Tuning 


[Verse]

e|---------------------------------|
B|---------------------------------|
G|---------------------------------| X2
D|---4-2-2-0--4-2-0-0-0-0-0-0-0-0--|
A|--0--------0---------------------|
D|-0--------0----5-5-5-5-7-7-5-5---|



[Chorus]

e|------------------|
B|------------------|
G|------------------| X4
D|-4-4-4-4-4-4-4-4--|
A|------------------|
D|0-0-0-0-5-5-7-7---|

[Electric Guitar] 

e|------------------------------------|
B|------------------------------------|
G|-11-11-11-11-11-11-7-7-7-6-6-11-----|
D|0--0--0--0--0--0--0-0-0-0-0-0--0-0--|
A|------------------------------------|
D|------------------------------------|


Suggest correction
Give kudos to tab author, rate the tab!
1 2 3 4 5
comments
print report bad tab
guest
You may want to rate the tab now too:
select rating
Wanna post a correction for this tab? Suggest correction