Oops, an error
Loading. Please wait.

So Sentimental tab

2,368 views 18 this week
no commentswrite comment
1 2 3 4 5
x 5
add to favorites
×
Save as Personal and add changes to this tab that will be seen only by you. Learn more ›
×
You can save this tab as Personal to edit and correct it or add notes. All changes will be seen only by you. Learn more »
launch autoscroll
font size
0
reset
how to read this tab
guitar tuner
edit
Autoscroll
slow
fast
+/-
esc
set tempo
stop

[Intro]

Guitar 1
e|-------------------------|-------------------------|-------------------------|-------------------------|
B|-------------------------|-------------------------|-------------------------|-------------------------|
G|-------------------------|-------------------------|-------------------------|-------------------------|
D|-------------------------|-------------------------|-------------------------|-------------------------|
A|-9-9-7-5-5-5-5---5-7-5---|-5-5-5-5--5-7-5----5-7-7-|-9-9-7-5-5-5-5---5-5-7-5-|-5-5-5-5--5-7-5--5-10-9--| x2
D|-------------------------|-------------------------|-------------------------|-------------------------|

Guitar 2
e|-------------------------|-------------------------|-------------------------|-------------------------|
B|-------------------------|-------------------------|-------------------------|-------------------------|
G|-11-11-11-11-11-11-11-11-|-11-11-11-12-12-12-11-11-|-------------------------|-11-11-11-11-11-11-11-11-|
D|-------------------------|-------------------------|-12-12-12-12-12-12-12-12-|-9--9--9--9--9--9--9--9--| x2
A|-9--9--9--9--9--9--9--9--|-9--9--9--9--9--9--9--9--|-10-10-10-10-10-10-10-10-|-------------------------|
D|-------------------------|-------------------------|-------------------------|-------------------------|

Guitar 3
e|-----------------|-----------------|-----------------|-----------------|-----------------|
B|-----------------|-----------------|-----------------|-----------------|-----------------|
G|-----------------|-----------------|-----------------|-----------------|-----------------|
D|-0-0-0-0-0-0-0-0-|-0-0-0-0-0-0-0-0-|-0-0-0-0-0-0-0-0-|-5-5-5-5-5-5-5-5-|-9-9-9-9-9-9-9-9-|
A|-0-0-0-0-0-0-0-0-|-0-0-0-0-0-0-0-0-|-0-0-0-0-0-0-0-0-|-5-5-5-5-5-5-5-5-|-9-9-9-9-9-9-9-9-| x2
D|-0-0-0-0-0-0-0-0-|-0-0-0-0-0-0-0-0-|-0-0-0-0-0-0-0-0-|-5-5-5-5-5-5-5-5-|-9-9-9-9-9-9-9-9-|


[Verse]

Guitar 1 
 PM----------------------------------------------------------------------------------------|
e|-----------------|-----------------|-----------------|-----------------|-----------------|
B|-----------------|-----------------|-----------------|-----------------|-----------------|
G|-----------------|-----------------|-----------------|-----------------|-----------------|
D|-0-0-0-0-0-0-0-0-|-0-0-0-0-0-0-0-0-|-0-0-0-0-0-0-0-0-|-5-5-5-5-5-5-5-5-|-9-9-9-9-9-9-9-9-| x4
A|-0-0-0-0-0-0-0-0-|-0-0-0-0-0-0-0-0-|-0-0-0-0-0-0-0-0-|-5-5-5-5-5-5-5-5-|-9-9-9-9-9-9-9-9-| 
D|-0-0-0-0-0-0-0-0-|-0-0-0-0-0-0-0-0-|-0-0-0-0-0-0-0-0-|-5-5-5-5-5-5-5-5-|-9-9-9-9-9-9-9-9-|

Guitar 2 (Come in on 3rd repeat of guitar 1)
e|-------------------------|--------------------------|
B|-------------------------|--------------------------|
G|-------------------------|-------------------0------|
D|-------5-----5-----5-----|-------5-------4-----4----|
A|---0-----0-----0-----0---|---5-----5---2---2-----2--| x2
D|-0---0-----0-----0-----0-|-5---5-----5--------------|

[Chorus]
e|-------------|-------------|------------------|-------------|
B|-------------|-------------|------------------|-------------|
G|-2--2--2-2-2-|-4--4--4-4-4-|-11--11--11-11-11-|-7--7--7-7-7-|
D|-0--0--0-0-0-|-2--2--2-2-2-|-9---9---9--9--9--|-5--5--5-5-5-| x2
A|-0--0--0-0-0-|-2--2--2-2-2-|-9---9---9--9--9--|-5--5--5-5-5-|
D|-0--0--0-0-0-|-2--2--2-2-2-|-9---9---9--9--9--|-5--5--5-5-5-|


[Pre-verse]

Guitar 1
e|-------------------------|-------------------------|-------------------------|-------------------------|
B|-------------------------|-------------------------|-------------------------|-------------------------|
G|-------------------------|-------------------------|-------------------------|-------------------------|
D|-------------------------|-------------------------|-------------------------|-------------------------|
A|-9-9-7-5-5-5-5---5-7-5---|-5-5-5-5--5-7-5----5-7-7-|-9-9-7-5-5-5-5---5-5-7-5-|-5-5-5-5--5-7-5--5-10-9--| x2
D|-------------------------|-------------------------|-------------------------|-------------------------|

Guitar 2
e|-------------------------|-------------------------|-------------------------|-------------------------|
B|-------------------------|-------------------------|-------------------------|-------------------------|
G|-11-11-11-11-11-11-11-11-|-11-11-11-12-12-12-11-11-|-------------------------|-11-11-11-11-11-11-11-11-|
D|-------------------------|-------------------------|-12-12-12-12-12-12-12-12-|-9--9--9--9--9--9--9--9--| x2
A|-9--9--9--9--9--9--9--9--|-9--9--9--9--9--9--9--9--|-10-10-10-10-10-10-10-10-|-------------------------|
D|-------------------------|-------------------------|-------------------------|-------------------------|

Guitar 3
e|-----------------|-----------------|-----------------|-----------------|-----------------|
B|-----------------|-----------------|-----------------|-----------------|-----------------|
G|-----------------|-----------------|-----------------|-----------------|-----------------|
D|-0-0-0-0-0-0-0-0-|-0-0-0-0-0-0-0-0-|-0-0-0-0-0-0-0-0-|-5-5-5-5-5-5-5-5-|-9-9-9-9-9-9-9-9-|
A|-0-0-0-0-0-0-0-0-|-0-0-0-0-0-0-0-0-|-0-0-0-0-0-0-0-0-|-5-5-5-5-5-5-5-5-|-9-9-9-9-9-9-9-9-| x2
D|-0-0-0-0-0-0-0-0-|-0-0-0-0-0-0-0-0-|-0-0-0-0-0-0-0-0-|-5-5-5-5-5-5-5-5-|-9-9-9-9-9-9-9-9-|


[Chorus]

e|-------------|-------------|------------------|-------------|
B|-------------|-------------|------------------|-------------|
G|-2--2--2-2-2-|-4--4--4-4-4-|-11--11--11-11-11-|-7--7--7-7-7-|
D|-0--0--0-0-0-|-2--2--2-2-2-|-9---9---9--9--9--|-5--5--5-5-5-| x4
A|-0--0--0-0-0-|-2--2--2-2-2-|-9---9---9--9--9--|-5--5--5-5-5-|
D|-0--0--0-0-0-|-2--2--2-2-2-|-9---9---9--9--9--|-5--5--5-5-5-|


[Bridge]

e|---|-------------------------|
B|---|-------------------------|
G|---|------0-----0-----0------|
D|-0-|--------4-----4-----4----| x4
A|-0-|---5-------5-----5-----5-|
D|-0-|-0---0-------------------|


[Outro]

e|-------------------------|-------------------------|-------------------------|-------------------------|
B|-------------------------|-------------------------|-------------------------|-------------------------|
G|-11-11-11-11-11-11-11-11-|-11-11-11-12-12-12-11-11-|-------------------------|-11-11-11-11-11-11-11-11-|
D|-------------------------|-------------------------|-12-12-12-12-12-12-12-12-|-9--9--9--9--9--9--9--9--| x2
A|-9--9--9--9--9--9--9--9--|-9--9--9--9--9--9--9--9--|-10-10-10-10-10-10-10-10-|-------------------------|
D|-------------------------|-------------------------|-------------------------|-------------------------|

Guitar 1
e|-------------------------|-------------------------|-------------------------|-------------------------|
B|-------------------------|-------------------------|-------------------------|-------------------------|
G|-------------------------|-------------------------|-------------------------|-------------------------|
D|-------------------------|-------------------------|-------------------------|-------------------------|
A|-9-9-7-5-5-5-5---5-7-5---|-5-5-5-5--5-7-5----5-7-7-|-9-9-7-5-5-5-5---5-5-7-5-|-5-5-5-5--5-7-5--5-10-9--| x2
D|-------------------------|-------------------------|-------------------------|-------------------------|

Guitar 2
e|-------------------------|-------------------------|-------------------------|-------------------------|
B|-------------------------|-------------------------|-------------------------|-------------------------|
G|-11-11-11-11-11-11-11-11-|-11-11-11-12-12-12-11-11-|-------------------------|-11-11-11-11-11-11-11-11-|
D|-------------------------|-------------------------|-12-12-12-12-12-12-12-12-|-9--9--9--9--9--9--9--9--| x2
A|-9--9--9--9--9--9--9--9--|-9--9--9--9--9--9--9--9--|-10-10-10-10-10-10-10-10-|-------------------------|
D|-------------------------|-------------------------|-------------------------|-------------------------|

Guitar 3
e|-----------------|-----------------|-----------------|-----------------|-----------------|
B|-----------------|-----------------|-----------------|-----------------|-----------------|
G|-----------------|-----------------|-----------------|-----------------|-----------------|
D|-0-0-0-0-0-0-0-0-|-0-0-0-0-0-0-0-0-|-0-0-0-0-0-0-0-0-|-5-5-5-5-5-5-5-5-|-9-9-9-9-9-9-9-9-|
A|-0-0-0-0-0-0-0-0-|-0-0-0-0-0-0-0-0-|-0-0-0-0-0-0-0-0-|-5-5-5-5-5-5-5-5-|-9-9-9-9-9-9-9-9-| x2
D|-0-0-0-0-0-0-0-0-|-0-0-0-0-0-0-0-0-|-0-0-0-0-0-0-0-0-|-5-5-5-5-5-5-5-5-|-9-9-9-9-9-9-9-9-|


e|-------------|-------------|------------------|-------------|
B|-------------|-------------|------------------|-------------|
G|-2--2--2-2-2-|-4--4--4-4-4-|-11--11--11-11-11-|-7--7--7-7-7-|
D|-0--0--0-0-0-|-2--2--2-2-2-|-9---9---9--9--9--|-5--5--5-5-5-| x6
A|-0--0--0-0-0-|-2--2--2-2-2-|-9---9---9--9--9--|-5--5--5-5-5-|
D|-0--0--0-0-0-|-2--2--2-2-2-|-9---9---9--9--9--|-5--5--5-5-5-|



            
            
Suggest correction
Creating personal tab
Creating personal tab
You can edit any tab online and save it as your Personal.

You can edit, replace or remove any tab part or add personal notes – all changes will be seen only by you.

Personal tabs can be accessed anytime from any device, even offline.
Learn more »
comments
print report bad tab
guest
You may want to rate the tab now too:
select rating
Wanna post a correction for this tab? Suggest correction