Oops, an error
Loading. Please wait.

Tinderbox tab

version 1
version 1

Whole song

910 views 15 this week
1 commentread comment
1 2 3 4 5
2 more votes to show rating
add to favorites
×
Save as Personal and add changes to this tab that will be seen only by you. Learn more ›
×
You can save this tab as Personal to edit and correct it or add notes. All changes will be seen only by you. Learn more »
launch autoscroll
font size
0
reset
how to read this tab
guitar tuner
edit
Autoscroll
slow
fast
+/-
esc
set tempo
stop
[Intro]

e|---------------------------------------------------------------------------|
B|---------------------------------------------------------------------------|
G|---------------------------------------------------------------------------| x3
D|---------------------------------------------------------------------------|
A|-8--8--8-8--8--8--8--10-8--8--8-8--14-14--17-x-17-17-----------------------|
D|-0--0--0-0--0--0--0--0--0--0--0-0--0--0---0--x-0--0------------------------|


[Verse]

e|---------------------------------------------------------------------------|
B|---------------------------------------------------------------------------|
G|---------------------------------------------------------------------------|
D|-3-3-3-3-3-3-3-3-7-7-7-3-3-3-3-3-3-3-3-7-7-7-------------------------------|
A|-3-3-3-3-3-3-3-3-7-7-7-3-3-3-3-3-3-3-3-7-7-7-------------------------------|
D|-3-3-3-3-3-3-3-3-7-7-7-3-3-3-3-3-3-3-3-7-7-7-------------------------------|
                                                                                x3
e|---------------------------------------------------------------------------|
B|---------------------------------------------------------------------------|
G|---------------------------------------------------------------------------|
D|-0-0-0-0-0-0-0-0-8-8-8-0-0-0-0-0-0-0-0-8-8-8-------------------------------|
A|-0-0-0-0-0-0-0-0-8-8-8-0-0-0-0-0-0-0-0-8-8-8-------------------------------|
D|-0-0-0-0-0-0-0-0-8-8-8-0-0-0-0-0-0-0-0-8-8-8-------------------------------|

e|---------------------------------------------------------------------------|
B|---------------------------------------------------------------------------|
G|----10\9\7\5-0-2-3-2-0----10\9\7\5-0-2-3-2/14\10\9\7\5-0-2-3-2-0/14\10\9\7\|
D|--7---0-0-0-------------7---0-0-0---------------0-0-0-----------------0-0-0|
A|-8-8-------------------8-8-------------------------------------------------|
D|---------------------------------------------------------------------------|

e|---------------------------------------------------------------------------|
B|---------------------------------------------------------------------------|
G|5-0-2-3-2-0----------------------------------------------------------------|
D|-----------3---------------------------------------------------------------|
A|---------------------------------------------------------------------------|
D|---------------------------------------------------------------------------|


[Chorus]

e|---------------------------------------------------------------------------|
B|---------------------------------------------------------------------------|
G|-10-10-10-10-10-10-10-10-10-10-10-10-10-10-10-10-10-10---------------------|
D|-0--0--0--0--0--0--0--0--0--8--8--8--8--8--8--8--8--8--3-3-3-3-3-3-3-3-3-5-|
A|-0--0--0--0--0--0--0--0--0--8--8--8--8--8--8--8--8--8--3-3-3-3-3-3-3-3-3-5-|
D|-0--0--0--0--0--0--0--0--0--8--8--8--8--8--8--8--8--8--3-3-3-3-3-3-3-3-3-5-|
                                                                               x2
e|---------------------------------------------------------------------------|
B|---------------------------------------------------------------------------|
G|---------------------------------------------------------------------------|
D|-5-5-5-5-5-5-5-5-----------------------------------------------------------|
A|-5-5-5-5-5-5-5-5-----------------------------------------------------------|
D|-5-5-5-5-5-5-5-5-----------------------------------------------------------|


[Bridge]

e|---------------------------------------------------------------------------|
B|---------------------------------------------------------------------------|
G|---------------------------------------------------------------------------| x1
D|---------------------------------------------------------------------------|
A|-8--8--8-8--8--8--8--10-8--8--8-8--14-14--17-x-17-17-----------------------|
D|-0--0--0-0--0--0--0--0--0--0--0-0--0--0---0--x-0--0------------------------|


[Verse]

e|---------------------------------------------------------------------------|
B|---------------------------------------------------------------------------|
G|---------------------------------------------------------------------------|
D|-3-3-3-3-3-3-3-3-7-7-7-3-3-3-3-3-3-3-3-7-7-7-------------------------------|
A|-3-3-3-3-3-3-3-3-7-7-7-3-3-3-3-3-3-3-3-7-7-7-------------------------------|
D|-3-3-3-3-3-3-3-3-7-7-7-3-3-3-3-3-3-3-3-7-7-7-------------------------------|
                                                                               x2
e|---------------------------------------------------------------------------|
B|---------------------------------------------------------------------------|
G|---------------------------------------------------------------------------|
D|-0-0-0-0-0-0-0-0-8-8-8-0-0-0-0-0-0-0-0-8-8-8-------------------------------|
A|-0-0-0-0-0-0-0-0-8-8-8-0-0-0-0-0-0-0-0-8-8-8-------------------------------|
D|-0-0-0-0-0-0-0-0-8-8-8-0-0-0-0-0-0-0-0-8-8-8-------------------------------|

End on:
e|---------------------------------------------------------------------------|
B|---------------------------------------------------------------------------|
G|---------------------------------------------------------------------------|
D|-x-x-x---------------------------------------------------------------------|
A|-x-x-x---------------------------------------------------------------------|
D|-x-x-x---------------------------------------------------------------------|


[Chorus]

e|---------------------------------------------------------------------------|
B|---------------------------------------------------------------------------|
G|-10-10-10-10-10-10-10-10-10-10-10-10-10-10-10-10-10-10---------------------|
D|-0--0--0--0--0--0--0--0--0--8--8--8--8--8--8--8--8--8--3-3-3-3-3-3-3-3-3-5-|
A|-0--0--0--0--0--0--0--0--0--8--8--8--8--8--8--8--8--8--3-3-3-3-3-3-3-3-3-5-|
D|-0--0--0--0--0--0--0--0--0--8--8--8--8--8--8--8--8--8--3-3-3-3-3-3-3-3-3-5-|
                                                                               x2
e|---------------------------------------------------------------------------|
B|---------------------------------------------------------------------------|
G|---------------------------------------------------------------------------|
D|-5-5-5-5-5-5-5-5-----------------------------------------------------------|
A|-5-5-5-5-5-5-5-5-----------------------------------------------------------|
D|-5-5-5-5-5-5-5-5-----------------------------------------------------------|


[Solo]

e|---------------------------------------------------------12~~~~~~~~13~~~~~~|
B|---------------------------------------------13--11--11--------------------|
G|-7~~~~-7--7--7--7-8-11-8-7-8-11-8-7h8p7--8---15b-13b-13b-------------------|
D|-9b~~~-9b-9b-9b--------------------------10b-------------------------------|
A|---------------------------------------------------------------------------|
D|---------------------------------------------------------------------------|

e|---------------------------------------------------------------------------|
B|---------------------------------------------------------------------------|
G|---------------------------------------------------------------------------| x2
D|-1-1-1-1-1-0-0-0-0-0-0-0-3-3-3-3-3-5-5-5-5-5-5-5---------------------------|
A|-1-1-1-1-1-0-0-0-0-0-0-0-3-3-3-3-3-5-5-5-5-5-5-5---------------------------|
D|-1-1-1-1-1-0-0-0-0-0-0-0-3-3-3-3-3-5-5-5-5-5-5-5---------------------------|


[Bridge]

e|---------------------------------------------------------------------------|
B|---------------------------------------------------------------------------|
G|---------------------------------------------------------------------------| x4
D|-1-1-1-1-1-0-0-0-0-0-0-0-3-3-3-3-3-5-5-5-5-5-5-5---------------------------|
A|-1-1-1-1-1-0-0-0-0-0-0-0-3-3-3-3-3-5-5-5-5-5-5-5---------------------------|
D|-1-1-1-1-1-0-0-0-0-0-0-0-3-3-3-3-3-5-5-5-5-5-5-5---------------------------|

e|---------------------------------------------------------------------------|
B|---------------------------------------------------------------------------|
G|--10--10--10--10--10--10--10--10-------------------------------------------| x2
D|----0---0-------0---0---0-------0------------------------------------------|
A|-8---8---8---8---8---8---8---8---------------------------------------------|
D|---------------------------------------------------------------------------|


[Chorus]

e|---------------------------------------------------------------------------|
B|---------------------------------------------------------------------------|
G|-10-10-10-10-10-10-10-10-10-10-10-10-10-10-10-10-10-10---------------------|
D|-0--0--0--0--0--0--0--0--0--8--8--8--8--8--8--8--8--8--3-3-3-3-3-3-3-3-3-5-|
A|-0--0--0--0--0--0--0--0--0--8--8--8--8--8--8--8--8--8--3-3-3-3-3-3-3-3-3-5-|
D|-0--0--0--0--0--0--0--0--0--8--8--8--8--8--8--8--8--8--3-3-3-3-3-3-3-3-3-5-|
                                                                               x4
e|---------------------------------------------------------------------------|
B|---------------------------------------------------------------------------|
G|---------------------------------------------------------------------------|
D|-5-5-5-5-5-5-5-5-----------------------------------------------------------|
A|-5-5-5-5-5-5-5-5-----------------------------------------------------------|
D|-5-5-5-5-5-5-5-5-----------------------------------------------------------|


[Outro]

e|---------------------------------------------------------------------------|
B|---------------------------------------------------------------------------|
G|---------------------------------------------------------------------------| x1
D|---------------------------------------------------------------------------|
A|-8--8--8-8--8--8--8--10-8--8--8-8--14-14--17-x-17-17-----------------------|
D|-0--0--0-0--0--0--0--0--0--0--0-0--0--0---0--x-0--0------------------------|


************************************

| x   Dead note
| h   Hammer on
| p   Pull off
| b   Bend
| /   Slide up
| \   Slide down
| ~   Vibrato

************************************



Suggest correction
Creating personal tab
Creating personal tab
You can edit any tab online and save it as your Personal.

You can edit, replace or remove any tab part or add personal notes – all changes will be seen only by you.

Personal tabs can be accessed anytime from any device, even offline.
Learn more »
Give kudos to tab author, rate the tab!
1 2 3 4 5
comments
print report bad tab
1 comment total.
+1 reply
d3nik3ady291 10 Mar 13, 2017 03:37 AM

its perfect!

guest
You may want to rate the tab now too:
select rating
Wanna post a correction for this tab? Suggest correction