Oops, an error
Loading. Please wait.

Viceroy bass

8,819 views 90 this week
7 commentsread comments
1 2 3 4 5
x 12
add to favorites
×
Save as Personal and add changes to this tab that will be seen only by you. Learn more ›
×
You can save this tab as Personal to edit and correct it or add notes. All changes will be seen only by you. Learn more »
launch autoscroll
font size
0
reset
guitar tuner
edit
Autoscroll
slow
fast
+/-
esc
set tempo
stop
Author
Difficulty
-------------------------------------------------------------------------------
                             Violent Soho - Viceroy
-------------------------------------------------------------------------------
Tabbed by: Bedforder
E-mail: Bedforder@gmail.com

Tuning: Standard

Hey everyone. This is my first tab. I love the song so much that I decided to learn it and tab it out by ear
so everyone could enjoy and learn it. Any constructive criticism and or tips is greatly appreciated. Special 
thanks to everyone in the comments, the admins and other tabbers who have helped fix and contribute to my tab.

[Intro] x5

G|--------------------------------------------|-------------------------------------------|
D|--------------------------------------------|-------------------------------------------|
A|-----------12-11-9-11---------12-11-9-11----|-----------12-11-9-11---------11-11-9-11---|
E|---12--12---------------9---9---------------|---12---12---------------9---9-------------|


[Verse] x4

G|-----------------------------------|
D|-----------------------------------|
A|--7-7-7-7-2-2-2-2---------0-0-0-0--|
E|------------------2-2-2-2----------|


[Chorus] x4

(Same as intro faster and without the intro's 2nd bit
G|---------------------------------------------------|
D|---------------------------------------------------|
A|----------------12-11-9-11------------12-11-9-11---|
E|---12-12-12-12--------------9-9-9-9----------------|


[Intro] again x5

G|--------------------------------------------|-------------------------------------------|
D|--------------------------------------------|-------------------------------------------|
A|-----------12-11-9-11---------12-11-9-11----|-----------12-11-9-11---------11-11-9-11---|
E|---12--12---------------9---9---------------|---12---12---------------9---9-------------|


[Verse] x4

G|-----------------------------------|
D|-----------------------------------|
A|--7-7-7-7-2-2-2-2---------0-0-0-0--|
E|------------------2-2-2-2----------|


[Chorus] x4

G|---------------------------------------------------|
D|---------------------------------------------------|
A|----------------12-11-9-11------------12-11-9-11---|
E|---12-12-12-12--------------9-9-9-9----------------|


[Bridge] x4

G|-----------------------------------|
D|-----------------------------------|
A|--7---7-/-2---2-----------0---0----|
E|------------------2---2------------|


[Bridge Continued] (played once)

G|--------------------------------------|
D|--------------------------------------|
A|-7-7-7-7-7-7-7-7-7-7-7-7-7-7-7-7-7-7--|
E|--------------------------------------|
(Repeat until the guitar solo's this part)


[Chorus] x4

G|---------------------------------------------------|
D|---------------------------------------------------|
A|----------------12-11-9-11------------12-11-9-11---|
E|---12-12-12-12--------------9-9-9-9----------------|


[Breakdown]
(You'll get the rhythm after hearing it) x4
G|------------------------------|----------------------------|
D|------------------------------|----------------------------|
A|-----77--77--7-77-/-12-12-12--|---77--77--7-77-/-11-11-11--|
E|------------------------------|----------------------------|

*******************************

| /  slide up

*******************************

            
            
Suggest correction
Creating personal tab
Creating personal tab
You can edit any tab online and save it as your Personal.

You can edit, replace or remove any tab part or add personal notes – all changes will be seen only by you.

Personal tabs can be accessed anytime from any device, even offline.
Learn more »
comments
print report bad tab
7 comments total. Showing first comments.
-1 reply
SammyDavies 10 Feb 26, 2016 04:05 PM

Intro:

play 9th on A instead of 10th on A

12th on E instead of 7th on A

9th on E instead of 4th on A

+1 reply
rocky12345 10 Mar 23, 2016 02:29 PM

Nice tab been wanted to play it

0 reply
hamish.pritchar 10 May 11, 2016 04:19 AM

Hey man good tab, what sammy said was right about 9th instead of 10th on A but the other corrections are the exact same notes, just preference of style, I find the way you've written it with 7th on A more comfortable personally. Another correction would be in the breakdown, the 11th on the A is played first and 12th on the A second I'm pretty sure (listen to the last note ring out sounds like a high A/ to me). I also think during the bridge he drops the E he plays down an octave from a 7th on the A string to 0 on the E string as well, thats what gives makes the song sound the fuller sound there though I'm not 100% sure on this, listening to the song while playing it sounds like it fits better to me personally. Otherwise good tab, well done.

guest
You may want to rate the tab now too:
select rating
Wanna post a correction for this tab? Suggest correction