Oops, an error
Loading. Please wait.

Viceroy tab

version 1
version 1

Whole song

  • Different Tuning to other slightly similar one plu... Show more
9,428 views 111 this week
4 commentsread comments
1 2 3 4 5
x 10
add to favorites
×
Save as Personal and add changes to this tab that will be seen only by you. Learn more ›
×
You can save this tab as Personal to edit and correct it or add notes. All changes will be seen only by you. Learn more »
launch autoscroll
font size
0
reset
how to read this tab
guitar tuner
edit
Autoscroll
slow
fast
+/-
esc
set tempo
stop
[Intro] (Bass Guitar only)

e|----------------------|------------------|----------------------|------------------|
B|----------------------|------------------|----------------------|------------------|
G|----------------------|------------------|----------------------|------------------|
D|----------------------|------------------|----------------------|------------------|
A|-7---7-12-11-9-11-----|--7-12-11-9-11-7--|-7---7-12-11-9-11-----|--7-12-12-9-11-7--|
D|------------------11--|------------------|------------------11--|------------------|


[Verse] (Bass Guitar only for the first 2 bars then drums):

e|----------------------|------------------|----------------------|------------------|
B|----------------------|------------------|----------------------|------------------|
G|----------------------|------------------|----------------------|------------------|
D|----------------------|------------------|----------------------|------------------| x4
A|-7---7-12-11-9-11-----|--7-12-11-9-11-7--|-7---7-12-11-9-11-----|--7-12-12-9-11-7--|
D|------------------11--|------------------|------------------11--|------------------|


[Lick] (Played after 2nd bar in the first verse):

e|----------------|
B|----------------|
G|-8-8-8--8----8--|
D|-7-7-7--10---10-| x2
A|-8-8-8--8----8--|
D|----------------|


[Pre-Chorus] (Bass plays the E and C# on the A string):

e|------------------|------------------|
B|------------------|------------------|
G|------------------|------------------|
D|-2-2-2-2--9-9-9-9-|-4-4-4-4--7-7-7-7-| x4
A|-2-2-2-2--9-9-9-9-|-4-4-4-4--7-7-7-7-|
D|-2-2-2-2--9-9-9-9-|-4-4-4-4--7-7-7-7-|


[Chorus]   
                                                   End on:
e|--------------------|------------------------|    |---|
B|--------------------|------------------------|    |---|
G|--------------------|------------------------|    |---|
D|--------------------|------------------------| x4 |-2-|
A|-7-7-7-7/12-11-9-11-|------------/12-11-9-11-|    |-2-|
E|--------------------|-11-11-11-11------------|    |-2-|

(The lick is also played at the end of the last bar)


[Verse]

e|----------------------|------------------|----------------------|------------------|
B|----------------------|------------------|----------------------|------------------|
G|----------------------|------------------|----------------------|------------------|
D|----------------------|------------------|----------------------|------------------| x4
A|-7---7-12-11-9-11-----|--7-12-11-9-11-7--|-7---7-12-11-9-11-----|--7-12-12-9-11-7--|
D|------------------11--|------------------|------------------11--|------------------|


[Pre-Chorus]

e|------------------|------------------|
B|------------------|------------------|
G|------------------|------------------|
D|-2-2-2-2--9-9-9-9-|-4-4-4-4--7-7-7-7-| x4
A|-2-2-2-2--9-9-9-9-|-4-4-4-4--7-7-7-7-|
D|-2-2-2-2--9-9-9-9-|-4-4-4-4--7-7-7-7-|


[Bridge]

e|------------------|------------------|
B|------------------|------------------|
G|------------------|------------------|
D|-2---2-/--9---9-\-|-4---4-/--7---7-\-| x4
A|-2---2-/--9---9-\-|-4---4-/--7---7-\-|
D|-2---2-/--9---9-\-|-4---4-/--7---7-\-|

e|-----------------|-----------------|-----------------|-------------------|
B|-----------------|-----------------|-----------------|-------------------|
G|-----------------|-----------------|-----------------|-------------------|
D|-2-2-2-2-2-2-2-2-|-2-2-2-2-2-2-2-2-|-2-2-2-2-2-2-2-2-|-2-2-2-2-2-2-2-2-/-|
A|-2-2-2-2-2-2-2-2-|-2-2-2-2-2-2-2-2-|-2-2-2-2-2-2-2-2-|-2-2-2-2-2-2-2-2-/-|
D|-2-2-2-2-2-2-2-2-|-2-2-2-2-2-2-2-2-|-2-2-2-2-2-2-2-2-|-2-2-2-2-2-2-2-2-/-|

e|-------------------------|-------------------------|
B|-------------------------|-------------------------|
G|-------------------------|-------------------------|
D|-14-14-14-14-14-14-14-14-|-14-14-14-14-14-14-14-14-|
A|-14-14-14-14-14-14-14-14-|-14-14-14-14-14-14-14-14-|
E|-14-14-14-14-14-14-14-14-|-14-14-14-14-14-14-14-14-|


[Solo]

I'll try to add this later but the rhythm is just
e|-----------------|-----------------|-----------------|------------------|
B|-----------------|-----------------|-----------------|------------------|
G|-----------------|-----------------|-----------------|------------------|
D|-2-2-2-2-2-2-2-2-|-2-2-2-2-2-2-2-2-|-2-2-2-2-2-2-2-2-|-2-2-2-2-2-2-2-2--|
A|-2-2-2-2-2-2-2-2-|-2-2-2-2-2-2-2-2-|-2-2-2-2-2-2-2-2-|-2-2-2-2-2-2-2-2--|
D|-2-2-2-2-2-2-2-2-|-2-2-2-2-2-2-2-2-|-2-2-2-2-2-2-2-2-|-2-2-2-2-2-2-2-2--|


[Outro]

e|-------------|------------------|
B|-------------|------------------|
G|-------------|------------------|
D|-2-2---2-2---|-2--2-2-/-x--x--x-| x3
A|-2-2---2-2---|-2--2-2-/-x--x--x-|
D|-2-2---2-2---|-2--2-2-/-x--x--x-|

e|-------------|---------------------|
B|-------------|---------------------|
G|-------------|---------------------|
D|-2-2---2-2---|-2--2-2-/-11--11--11-| x3
A|-2-2---2-2---|-2--2-2-/-11--11--11-|
D|-2-2---2-2---|-2--2-2-/-11--11--11-|


************************************

| x  Dead note
| /  Slide up
| \  Slide down

************************************

            
            
Suggest correction
Creating personal tab
Creating personal tab
You can edit any tab online and save it as your Personal.

You can edit, replace or remove any tab part or add personal notes – all changes will be seen only by you.

Personal tabs can be accessed anytime from any device, even offline.
Learn more »
comments
print report bad tab
4 comments total. Showing first comments.
0 reply
olliclark4 10 Apr 24, 2016 06:09 PM

Can we please get a solo tab??

0 reply
kbaines 35 Jun 15, 2016 02:09 AM

doesn't sound right. Nice try though

0 reply
kbaines 35 Jun 15, 2016 02:11 AM

It's pretty close though :)

guest
You may want to rate the tab now too:
select rating
Wanna post a correction for this tab? Suggest correction