Oops, an error
Loading. Please wait.

Viceroy tab

version 2
version 2

Whole song

  • Different Tuning to other slightly similar one plu... Show more
1,087 views 6 this week
1 commentread comment
1 2 3 4 5
x 3
add to favorites
×
Save as Personal and add changes to this tab that will be seen only by you. Learn more ›
×
You can save this tab as Personal to edit and correct it or add notes. All changes will be seen only by you. Learn more »
launch autoscroll
font size
0
reset
how to read this tab
guitar tuner
edit
Autoscroll
slow
fast
+/-
esc
set tempo
stop
Track - Viceroy
Artist - Violent Soho
Album- - WACO

Tuning: Drop D + 1/2 Step (Db Ab Db Gb Bb Eb)


[Verse]

Guitar 1 (Clean with Reverb) (Played After the line "My drunk guitar's more fun than you'll ever be")
eb|-----------------|
Bb|-13-13-13--10-10-|
Gb|-10-10-10--10-10-|
Db|-----------------| 
Ab|-----------------|
Db|-----------------|

[Pre-chorus]

Guitar 1 (Clean)
eb|---------------------|-----------------|
Bb|---------------------|-----------------|
Gb|---------------------|-----------------|
Db|-3-3-3-3-10-10-10-10-|-5-5-5-5-8-8-8-8-|
Ab|-3-3-3-3-10-10-10-10-|-5-5-5-5-8-8-8-8-| [x4]
Db|-3-3-3-3-10-10-10-10-|-5-5-5-5-8-8-8-8-|
PM----------------------------------------|


[Chorus]
Guitar 1 (Distortion)
eb|-----------------|-----------------|
Bb|-----------------|-----------------|
Gb|-----------------|-----------------|
Db|-3-3-3-3-8-7-5-7-|-0-0-0-0-8-7-5-7-| [x4]
Ab|-3-3-3-3-8-7-5-7-|-0-0-0-0-8-7-5-7-|
Db|-3-3-3-3-8-7-5-7-|-0-0-0-0-8-7-5-7-|

Guitar 2 (Clean) (On the 4th Repeat of Guitar 1's Part)
eb|-----------------|
Bb|-13-13-13--10-10-|
Gb|-10-10-10--10-10-|
Db|-----------------| 
Ab|-----------------|
Db|-----------------|


[Verse]
Guitar 1 (Clean with Reverb) (Played After the line "Give it up the charisma")
eb|-----------------|
Bb|-13-13-13--10-10-|
Gb|-10-10-10--10-10-|
Db|-----------------| 
Ab|-----------------|
Db|-----------------|


[Pre-chorus]

Guitar 1 (Clean)
eb|---------------------|-----------------|
Bb|---------------------|-----------------|
Gb|---------------------|-----------------|
Db|-3-3-3-3-10-10-10-10-|-5-5-5-5-8-8-8-8-|
Ab|-3-3-3-3-10-10-10-10-|-5-5-5-5-8-8-8-8-| [x4]
Db|-3-3-3-3-10-10-10-10-|-5-5-5-5-8-8-8-8-|
PM----------------------------------------|

Guitar 2 (Distortion)
eb|---------------------|-----------------|
Bb|---------------------|-----------------|
Gb|---------------------|-----------------|
Db|-3~~~~~~~~~~~~~~~~~~~|-(3)~~~~~~~~~~~~~| [x4]
Ab|---------------------|-----------------|
Db|---------------------|-----------------|


[Chorus]
Guitar 1 and 2 (Distortion)
eb|-----------------|-----------------|
Bb|-----------------|-----------------|
Gb|-----------------|-----------------|
Db|-3-3-3-3-8-7-5-7-|-0-0-0-0-8-7-5-7-| [x4]
Ab|-3-3-3-3-8-7-5-7-|-0-0-0-0-8-7-5-7-|
Db|-3-3-3-3-8-7-5-7-|-0-0-0-0-8-7-5-7-|


[Bridge]
Guitar 1 and 2 (Distortion)
eb|---------------------|-----------------|
Bb|---------------------|-----------------|
Gb|---------------------|-----------------|
Db|-3-3-3-3-10-10-10-10-|-5-5-5-5-8-8-8-8-|
Ab|-3-3-3-3-10-10-10-10-|-5-5-5-5-8-8-8-8-| [x4]
Db|-3-3-3-3-10-10-10-10-|-5-5-5-5-8-8-8-8-|

Guitar 1 (Distortion)
eb|-----------------|-------------------|
Bb|-----------------|-------------------|
Gb|-----------------|-------------------|
Db|-----------------|-------------------| [x4]
Ab|-----------------|-------------------|
Db|-3-3-3-3-3-3-3-3-|-3-3-3-3-3-3-3-3-3-|

eb|-------------------------|-------------------------|
Bb|-------------------------|-------------------------|
Gb|-------------------------|-------------------------|
Db|-------------------------|-------------------------|
Ab|-------------------------|-------------------------|
Db|-15-15-15-15-15-15-15-15-|-15-15-15-15-15-15-15-15-|


[Solo]

Guitar 1
eb|-----------------|-----------------|
Bb|-----------------|-----------------|
Gb|-----------------|-----------------|
Db|-3-3-3-3-8-7-5-7-|-0-0-0-0-8-7-5-7-| [x4]
Ab|-3-3-3-3-8-7-5-7-|-0-0-0-0-8-7-5-7-|
Db|-3-3-3-3-8-7-5-7-|-0-0-0-0-8-7-5-7-|

eb|-----------------------------|-----------------------------|
Bb|-----------------------------|-----------------------------|
Gb|-----------------------------|-----------------------------|
Db|-3-3---3-3---3-3---3-3-------|-3-3---3-3---3-3---3-3-------|
Ab|-3-3---3-3---3-3---3-3-5-5-5-|-3-3---3-3---3-3---3-3-4-4-4-|
Db|-3-3---3-3---3-3---3-3-------|-3-3---3-3---3-3---3-3-------|

eb|-----------------------------|-----------------------------|
Bb|-----------------------------|-----------------------------|
Gb|-----------------------------|-----------------------------|
Db|-3-3---3-3---3-3---3-3-------|-3-3---3-3---3-3---3-3-------|
Ab|-3-3---3-3---3-3---3-3-4-4-4-|-3-3---3-3---3-3---3-3-5-5-5-|
Db|-3-3---3-3---3-3---3-3-------|-3-3---3-3---3-3---3-3-------|


***********************************

| ~             Let Ring

***********************************

            
            
Suggest correction
Creating personal tab
Creating personal tab
You can edit any tab online and save it as your Personal.

You can edit, replace or remove any tab part or add personal notes – all changes will be seen only by you.

Personal tabs can be accessed anytime from any device, even offline.
Learn more »
Give kudos to tab author, rate the tab!
1 2 3 4 5
comments
print report bad tab
1 comment total.
0 reply
irdatwun 138 Mar 08, 2017 11:43 AM

Easily the best/most accurate version here, just missing the solo

guest
You may want to rate the tab now too:
select rating
Wanna post a correction for this tab? Suggest correction