Oops, an error
Loading. Please wait.

Waco tab

967 views 6 this week
1 commentread comment
1 2 3 4 5
x 3
add to favorites
×
Save as Personal and add changes to this tab that will be seen only by you. Learn more ›
×
You can save this tab as Personal to edit and correct it or add notes. All changes will be seen only by you. Learn more »
launch autoscroll
font size
0
reset
how to read this tab
guitar tuner
edit
Autoscroll
slow
fast
+/-
esc
set tempo
stop
[Intro]

Lead
e|-------------------------------------------------------------------|
B|-------------------------------------------------------------------|
G|-------------------------------------------------------------------|
D|---x---x---x---x---x---x---x---x---x---x---x---x---x---x---x---x---|
A|---7---7---5---3---3---5---5---x---7---7---5---3---3---5---5---x---|
D|---x---x---x---x---x---x---x---x---x---x---x---x---x---x---x---x---|

e|-------------------------------------------------------------------|
B|-------------------------------------------------------------------|
G|-------------------------------------------------------------------|
D|---x---x---x---x---x---x---x---x---x---x---x---x---x---x---x---x---|
A|---7---7---5---3---3---3---5---3---3---3---5---3---3---3---5---x---|
D|---x---x---x---x---x---x---x---x---x---x---x---x---x---x---x---x---|

Rhythm
e|-------------------------------------------------------------------|
B|-------------------------------------------------------------------|
G|-------------------------------------------------------------------|
D|---3---3---3---3---3---3---3---3---5---5---5---5---5---5---5---5---|
A|---3---3---3---3---3---3---3---3---5---5---5---5---5---5---5---5---|
D|---3---3---3---3---3---3---3---3---5---5---5---5---5---5---5---5---|

e|-------------------------------------------------------------------|
B|-------------------------------------------------------------------|
G|-------------------------------------------------------------------|
D|---0---0---0---0---0---0---0---0---0---0---0---0---0---0---0---0---|
A|---0---0---0---0---0---0---0---0---0---0---0---0---0---0---0---0---|
D|---0---0---0---0---0---0---0---0---0---0---0---0---0---0---0---0---|


[Verse]

Lead
e|---------------------------------------------------------------------------|
B|---------------------------------------------------------------------------|
G|---------------------------------------------------------------------------|
D|---------------------------------------------------------------------------|
A|---------------------------------------------------------------------------|
D|--0-0-0-0-0-0-7-7-7-7-7-7-8-8-8-8-8-8-3-3-3-3-3-3-7-7-7-7-7-7-3-3-3-3-3-3--| x2


[Chorus]

Lead
e|-------------------------------------------------------------------|
B|-------------------------------------------------------------------|
G|-------------------------------------------------------------------|
D|---x---x---x---x---x---x---x---x---x---x---x---x---x---x---x---x---|
A|---7---7---5---3---3---5---5---x---7---7---5---3---3---5---5---x---|
D|---x---x---x---x---x---x---x---x---x---x---x---x---x---x---x---x---|

e|-------------------------------------------------------------------|
B|-------------------------------------------------------------------|
G|-------------------------------------------------------------------|
D|---x---x---x---x---x---x---x---x---x---x---x---x---x---x---x---x---|
A|---7---7---5---3---3---3---5---3---3---3---5---3---3---3---5---x---|
D|---x---x---x---x---x---x---x---x---x---x---x---x---x---x---x---x---|

Rhythm
e|-------------------------------------------------------------------|
B|-------------------------------------------------------------------|
G|-------------------------------------------------------------------|
D|---3---3---3---3---3---3---3---3---5---5---5---5---5---5---5---5---|
A|---3---3---3---3---3---3---3---3---5---5---5---5---5---5---5---5---|
D|---3---3---3---3---3---3---3---3---5---5---5---5---5---5---5---5---|

e|-------------------------------------------------------------------|
B|-------------------------------------------------------------------|
G|-------------------------------------------------------------------|
D|---0---0---0---0---0---0---0---0---0---0---0---0---0---0---0---0---|
A|---0---0---0---0---0---0---0---0---0---0---0---0---0---0---0---0---|
D|---0---0---0---0---0---0---0---0---0---0---0---0---0---0---0---0---|


[Verse]

Lead
e|---------------------------------------------------------------------------|
B|---------------------------------------------------------------------------|
G|---------------------------------------------------------------------------|
D|---------------------------------------------------------------------------|
A|---------------------------------------------------------------------------|
D|--0-0-0-0-0-0-7-7-7-7-7-7-8-8-8-8-8-8-3-3-3-3-3-3-7-7-7-7-7-7-3-3-3-3-3-3--| x2

Rhythm (lightly in background, second time through)
e|---------------------------------------------------------------------------|
B|---------------------------------------------------------------------------|
G|--2-2-2-2-2-2-2-2-2-2-2-2-3-3-3-3-3-3--------------------------------------|
D|--2-2-2-2-2-2-2-2-2-2-2-2-3-3-3-3-3-3--------------------------------------|
A|--0-0-0-0-0-0-0-0-0-0-0-0-1-1-1-1-1-1--------------------------------------|
D|---------------------------------------------------------------------------|


[Chorus]

Lead
e|-------------------------------------------------------------------|
B|-------------------------------------------------------------------|
G|-------------------------------------------------------------------|
D|---x---x---x---x---x---x---x---x---x---x---x---x---x---x---x---x---|
A|---7---7---5---3---3---5---5---x---7---7---5---3---3---5---5---x---|
D|---x---x---x---x---x---x---x---x---x---x---x---x---x---x---x---x---|

e|-------------------------------------------------------------------|
B|-------------------------------------------------------------------|
G|-------------------------------------------------------------------|
D|---x---x---x---x---x---x---x---x---x---x---x---x---x---x---x---x---|
A|---7---7---5---3---3---3---5---3---3---3---5---3---3---3---5---x---|
D|---x---x---x---x---x---x---x---x---x---x---x---x---x---x---x---x---|

Rhythm
e|-------------------------------------------------------------------|
B|-------------------------------------------------------------------|
G|-------------------------------------------------------------------|
D|---3---3---3---3---3---3---3---3---5---5---5---5---5---5---5---5---|
A|---3---3---3---3---3---3---3---3---5---5---5---5---5---5---5---5---|
D|---3---3---3---3---3---3---3---3---5---5---5---5---5---5---5---5---|

e|-------------------------------------------------------------------|
B|-------------------------------------------------------------------|
G|-------------------------------------------------------------------|
D|---0---0---0---0---0---0---0---0---0---0---0---0---0---0---0---0---|
A|---0---0---0---0---0---0---0---0---0---0---0---0---0---0---0---0---|
D|---0---0---0---0---0---0---0---0---0---0---0---0---0---0---0---0---|


[Instamental/ Outro]

(Rhythm same as chorus) 

e|---------------------------------------------------|
B|---------------------------------------------------|
G|---------------------------------------------------|
D|--------0-----------0-----------0-----------0------|
A|-----5-----5-----5-----5-----5-----5-----5-----5---|
D|--3-----------3-----------5-----------5------------|

e|---------------------------------------------------|
B|---------------------------------------------------|
G|---------------------------------------------------|
D|--------0-----------0-----------0-----------0------|
A|-----5-----5-----5-----5-----5-----5-----5-----5---|
D|--0-----------0-----------0-----------0------------|

e|---------------------------------------------------------------------------|
B|---------------------------------------------------------------------------|
G|--14-------------------------------13--------------------------------------|
D|---------------------------------------------------------------------------|
A|---------------------------------------------------------------------------|
D|---------------------------------------------------------------------------|  

e|---------------------------------------------------------------------------|
B|-----------------------------------------------13b13b13b13b-15b15b15b15b---|
G|--14-------------------------------13--------------------------------------|
D|---------------------------------------------------------------------------|
A|---------------------------------------------------------------------------|
D|---------------------------------------------------------------------------|

e|--12--10------12--10------10------------12--10------12--10------10---------|
B|----------10----------10------------------------10----------10-------------|
G|---------------------------------------------------------------------------|
D|---------------------------------------------------------------------------|
A|---------------------------------------------------------------------------|
D|---------------------------------------------------------------------------| Repeat

e|---------------------------------------------------------------------------|
B|---------------------------------------------------------------------------|
G|--13-------------------------------14------------------13------------------|
D|---------------------------------------------------------------------------|
A|---------------------------------------------------------------------------|
D|---------------------------------------------------------------------------|


e|---------------------------------------------------------------------------|
B|----13b-13b-13b-13b-13b-13b-13b-13b---12b-12b-12b-12b-12b-12b-12b-12b------|
G|---------------------------------------------------------------------------|
D|---------------------------------------------------------------------------|
A|---------------------------------------------------------------------------|
D|---------------------------------------------------------------------------|

e|---------------------------------------------------------------------------|
B|----15b-15b-15b-15b-15b-15b-15b-15b---15b-15b-15/19b20-20-20---------------|
G|---------------------------------------------------------------------------|
D|---------------------------------------------------------------------------|
A|---------------------------------------------------------------------------|
D|---------------------------------------------------------------------------|


************************************
| /    Slide up
| x   Dead note
|(n) Ghost note
| b   Bend
************************************
Suggest correction
Creating personal tab
Creating personal tab
You can edit any tab online and save it as your Personal.

You can edit, replace or remove any tab part or add personal notes – all changes will be seen only by you.

Personal tabs can be accessed anytime from any device, even offline.
Learn more »
Give kudos to tab author, rate the tab!
1 2 3 4 5
comments
print report bad tab
1 comment total.
0 reply
mitchell.assen 10 Apr 25, 2016 03:45 AM

Great, tab! Thank you very much for posting!

guest
You may want to rate the tab now too:
select rating
Wanna post a correction for this tab? Suggest correction