Oops, an error
Loading. Please wait.

Homenaje A Pablo Neruda tab

60 views 1 this week
no commentswrite comment
1 2 3 4 5
3 more votes to show rating
add to favorites
×
Save as Personal and add changes to this tab that will be seen only by you. Learn more ›
×
You can save this tab as Personal to edit and correct it or add notes. All changes will be seen only by you. Learn more »
launch autoscroll
font size
0
reset
how to read this tab
guitar tuner
edit
Autoscroll
slow
fast
+/-
esc
set tempo
stop
Intro base:
E|---0--0--0----0--0--0----| 
B|----1--1-------1--1------|
G|-----2--2-------2--2-----|
D|-2-----------2-----------|
A|-------------------------|
E|-------------------------|

Verso(s)
E|-8--7-10-8-8--8--7-8-10----8-7-8-7--|
B|-----------------------9----------10|
G|------------------------------------|
D|------------------------------------|
A|------------------------------------|
E|------------------------------------|

E|----------12----10-----------------|---10-------------------12---------|
B|-10-12-13----12----13---13-10-12-13|12----13-13-12-10-13-12----13------|
G|-----------------------------------|-----------------------------------|
D|-----------------------------------|-----------------------------------|
A|-----------------------------------|-----------------------------------|
E|-----------------------------------|-----------------------------------|

E|--7-10-8-8--8--7-8-10----8-7-8-7--|
B|---------------------9----------10|
G|----------------------------------|
D|----------------------------------|
A|----------------------------------|
E|----------------------------------|

E|----------12-10-------10----------|-----------------------------------|
B|-10-12-13-------13-12----13-12-10-|-13-12-10-9-12-11-10---------------|
G|----------------------------------|-----------------------------------|
D|----------------------------------|-----------------------------------|
A|----------------------------------|-----------------------------------|
E|----------------------------------|-----------------------------------|

E|----------12-10----10-------------|10---------------------------------|
B|-10-12-13-------13----13-12-10-12-|----13-12-13-12-10-9-10------------|
G|----------------------------------|-----------------------------------|
D|----------------------------------|-----------------------------------|
A|----------------------------------|-----------------------------------|
E|----------------------------------|-----------------------------------|

E|----------------------------------|
B|-13-12-10-12-10-9----9-10---------|
G|------------------11--------------|
D|----------------------------------|
A|----------------------------------|
E|----------------------------------|

DEJO a los sindicatos
del cobre, del carbón y del salitre 
mi casa junto al mar de Isla Negra. 

Quiero que allí reposen los maltratados hijos 
de mi patria, saqueada por hachas y traidores, 
desbaratada en su sagrada sangre,  
consumida en volcánicos harapos.

Quiero que al limpio amor que recorriera 
mi dominio, descansen los cansados, 
se sienten a mi mesa los oscuros, 
duerman sobre mi cama los heridos.

Hermano, ésta es mi casa, entra en el mundo 
de flor marina y piedra constelada 
que levanté luchando en mi pobreza. 

Aquí nació el sonido en mi ventana 
como en una creciente caracola
y luego estableció sus latitudes 
en mi desordenada geología.

Tu vienes de abrasados corredores, 
de túneles mordidos por el odio, 
por el salto sulfúrico del viento:
aquí tienes la paz que te destino, 
agua y espacio de mi oceanía.

            
            
Suggest correction
Creating personal tab
Creating personal tab
You can edit any tab online and save it as your Personal.

You can edit, replace or remove any tab part or add personal notes – all changes will be seen only by you.

Personal tabs can be accessed anytime from any device, even offline.
Learn more »
Give kudos to tab author, rate the tab!
1 2 3 4 5
comments
print report bad tab
guest
Wanna post a correction for this tab? Suggest correction