Oops, an error
Loading. Please wait.

Verso Por Despedida A Gabriela tab

38 views 1 this week
no commentswrite comment
1 2 3 4 5
3 more votes to show rating
add to favorites
×
Save as Personal and add changes to this tab that will be seen only by you. Learn more ›
×
You can save this tab as Personal to edit and correct it or add notes. All changes will be seen only by you. Learn more »
launch autoscroll
font size
0
reset
how to read this tab
guitar tuner
edit
Autoscroll
slow
fast
+/-
esc
set tempo
stop
Acordes utilizados:

DO         DO+1/2       DO+1

e||---|    e||-1-|      e||-3-|
B||-1-|    B||-3-|      B||-1-|
G||---|    G||---|      G||---|
D||-2-|    D||-2-|      D||-2-|
A||-3-|    A||-3-|      A||-3-|
E||---|    E||x--|      E||x--|


INTRO

    DO           DO+1/2         DO+1          DO+1/2
e||--------------1-1-1-1-1-1-|-3-3-3-3-3-3--1-1-1-1-1-1-|
B||-1-1-1-1-1-1--3-3-3-3-3-3-|-1-1-1-1-1-1--3-3-3-3-3-3-|
G||--------------------------|--------------------------|
D||-2-2-2-2-2-2--2-2-2-2-2-2-|-2-2-2-2-2-2--2-2-2-2-2-2-|
A||-3-3-3-3-3-3--3-3-3-3-3-3-|-3-3-3-3-3-3--3-3-3-3-3-3-|
E||--------------------------|--------------------------|

   DO     DO+1/2 DO      DO+1/2 DO
e||----------1-1-----------1-1-------------||
B||-1-1-1-1--3-3--1-1-1-1--3-3---1-1-1-1---||
G||----------------------------------------||
D||-2-2-2-2--2-2--2-2-2-2--2-2---2-2-2-2---||
A||-3-3-3-3--3-3--3-3-3-3--3-3---3-3-3-3---||
E||----------------------------------------||


e||--------------------------------------|---------1-1-----------|
B||--------------------------------------|--1-1-1--3-3--1-1-1-1--|
G||-------------0-0----------------------|-----------------------|
D||-----2-0-2-3-----0-2-0-2-0-0-2--0-----|--2-2-2--2-2--2-2-2-2--|
A||-----------------------------------3--|--3-3-3--3-3--3-3-3-3--|
E||-3-3----------------------------------|-----------------------|
    Hoy día se llora en Chile por una causa penosa.


e||--------------------------------------|---------1-1-----------|
B||--------------------------------------|--1-1-1--3-3--1-1-1-1--|
G||--------------------------------------|-----------------------|
D||-----0-0-0-0-0--------0-0-0-0-0-------|--2-2-2--2-2--2-2-2-2--|
A||-3-3-----------3--3-3------------3----|--3-3-3--3-3--3-3-3-3--|
E||--------------------------------------|-----------------------|
    Dios ha llamao' a la diosa, a su mansión tan sublime.


e||-------------------------------------------------------|--------|
B||-------------------------------------------------------|-1-1-1--|
G||-------------------0--0--------------------------------|--------|
D||-------2--0--2--3--------0--2--0--2--0--0--2----0------|-2-2-2--|
A||-----------------------------------------------------3-|-3-3-3--|
E||-3--3--------------------------------------------------|--------|
    De sur a norte se gime, se encienden to'as las velas,


e||-----1-1-1-1-1-1---------------1-1-1-1-1-1-|----------1-1-----------|
B||-1-1-3-3-3-3-3-3--1-1-1-1-1-1--3-3-3-3-3-3-|-1-1-1-1--3-3--1-1-1-1--|
G||-------------------------------------------|------------------------|
D||-2-2-2-2-2-2-2-2--2-2-2-2-2-2--2-2-2-2-2-2-|-2-2-2-2--2-2--2-2-2-2--|
A||-3-3-3-3-3-3-3-3--3-3-3-3-3-3--3-3-3-3-3-3-|-3-3-3-3--3-3--3-3-3-3--|
E||-------------------------------------------|------------------------|
    Para alumbrarle a Grabiela, la sombra que hoy es su mundo


e||-------------------------------------------------------||
B||-------------------------------------------------------||
G||-------------------0--0--------------------------------||
D||-------2--0--2--3--------0--2--0--2--0--0--2----0------|| Puente=Intro
A||-----------------------------------------------------3-||
E||-3--3--------------------------------------------------||
    con sentimiento projundo yo le rezo en mi vihuela.


Presienta y bienhechora de la lengua castellana,
la mujer americana, se inclina la vista y llora,
por la celestial señora que ha partio' de este suelo,
yo le ofrezco sin recelo, en mi canto a lo divino,
que un ave de dulce trino, la acompañe al alto cielo.

En medio del paraíso, hay un sillón de oro fino
y un manto de blanco lino que la virgen mesma l'hizo
un ángel de bellos rizos, está esperando en la entrá',
a la mejor invitá' que ocupará aquel sillón,
hasta la consumación santa Mistral coroná'.

Hay una fiesta en la gloria, y un llorar aquí en la tierra,
como si una grande guerra, haya manchao' la historia
jamás de nuestra memoria, ha de olvidarte Gabriela
los niños de las escuelas ya no tienen su mairina.
La proviencia divina se llevó la flor más bella.


*************************************************************

* Letra coloquial de LP original *

Este es mi humilde aporte, lo comparto con mucho sentimiento.
Si alguien lo mejora, bienvenido sea!
Saludos desde la Isla de Pascua, Maururu!

            
            
Suggest correction
Creating personal tab
Creating personal tab
You can edit any tab online and save it as your Personal.

You can edit, replace or remove any tab part or add personal notes – all changes will be seen only by you.

Personal tabs can be accessed anytime from any device, even offline.
Learn more »
Give kudos to tab author, rate the tab!
1 2 3 4 5
comments
print report bad tab
guest
Wanna post a correction for this tab? Suggest correction