Oops, an error
Loading. Please wait.

At Least A Chance Bass Tab

version 1
version 1

Whole song

Interactive

105 views 1 this week
no commentswrite comment
1 2 3 4 5
please rate
add to favorites
launch autoscroll
font size
0
reset
guitar tuner
Tab Pro tools
  • play this tab
  • loop segment
  • change instrument
  • show fretboard
  • metronome
Autoscroll
slow
fast
+/-
esc
set tempo
stop
Viper:  At Least A Chance

Intro              x2
G|---------------------|
D|---------------------|
A|-0-------5-----------|
E|------------------3--|
         
          x2
G|----------|
D|----------|
A|-0*-------|
E|----1*-3*-|

G|--------------------------|
D|--------------------------|
A|--------------------------|
E|-0*-1*-3----3----3----3-3-|

Verse           x4
G|----------------|
D|----------------|
A|----5*-2*-3*-5*-|
E|-0*-------------|

Pre-chorus      x2
G|----------------|
D|----------------|
A|-0*-5*-7*-------|
E|----------1*-3*-|

Chorus
G|-------------------------------|
D|-------------------------------|
A|-------------------2*-3*-1--1--|
E|-0*-5*-6*-5--5--3*-------------|

                  1st   2nd time
G|----------------|-----|-----|
D|----------------|-----|-----|
A|-0*-4*-5*-3*-1*-|--0--|--3--|
E|----------------|-----|-----|

Pre-solo   x2
G|----------|
D|----------|
A|-0*-------|
E|----1*-3*-|

Solo Rhythm   x2
G|-------------|
D|-------------|
A|-------0*-3*-|
E|-1*-0*-------|

G|---------------5---5---7------|
D|------5---5---5-5-5-5-7-7--9--|
A|-----5-5-5-5-3---3---5----9-9-|
E|-0*-3---3----------------7----|

G|---------------5---5---7---8--|
D|------5---5---5-5-5-5-7-7-8-8-|
A|-7*--5-5-5-5-3---3---5---6----|
E|----3---3---------------------|
                         x3
G|------------------------|--------------------|
D|------------------------|--------------------|
A|-7--7-7--7--7-7--7--7---|-7-7-7--7--7-7-7-7--|
E|------------------------|--------------------|

G|----------------------------------|
D|----------------------------------|
A|-------5-----7------2-----3----5*-|
E|-3--------------------------------|

G|------------------|
D|------------------|
A|----5*---2*-3*-5*-|
E|-3*---0*----------|

G|---------------------------------------------------------------------|
D|---------------------------------------------------------------------|
A|-------5---5----------5---5------5----5----5-------------------------|
E|-3-------3---3----------3---3------3----3----3---3-333--3-333--3-333-|

Play Verse, Pre-chorus, and Chorus again

Then here's the ending x3
G|-----------|
D|-0*--------|
A|----1*-3*--|
E|-----------|

G|----------------------------------------|
D|-0*-------------------------------------|
A|----1----3----0----1----3--3--3--3-3-5\-|
E|----------------------------------------|

End.
comments
We did not receive enough feedback on this tab! Please rate:
print report bad tab
1 2 3 4 5
I want to post or [tab]
guest
You may want to rate the tab now too:
select rating
Please do not post tabs as comments. Select "correction" instead!