Oops, an error
Loading. Please wait.

Tomo Conta Desta Tua Casa Tab

1,656 views 3 this week
no commentswrite comment
1 2 3 4 5
1 last vote to show rating
add to favorites
launch autoscroll
font size
0
reset
how to read this tab
guitar tuner
Autoscroll
slow
fast
+/-
esc
set tempo
stop
Help us to improve Ultimate-Guitar.com Take our survey!
×
Author
------------------------------------------------------------------------------- 

                Tomo Conta Desta Tua Casa - Virgem Suta

-------------------------------------------------------------------------------

Tabbed by: Joana P.

Tuning: standard


ACORDES UTILIZADOS: Gm, D, Cm, F


A introducao e a da versao acustica!
INTRODUCAO                VERSO
      Gm

e|----3----3----3-3-3-3------------3----------3----------3----------3--------|
B|----3----3----3-3-3-3------------3----------3----------3----------3--------|
G|----3----3----3-3-3-3------------3----------3----------3----------3--------|
D|----5----5----3-3-3-3------------------------------------------------------|
A|----5----5----5-5-5-5------------------5---------------------5-------------|
E|----3----3----3-3-3-3------3----------------------3------------------------|
                             "Tomo conta desta tua casa....


e|-------3---------3---------3--------3--------3--------3--------3-----------|
B|-------3---------3---------3--------3--------3--------3--------3-----------|
G|-------3---------3---------3--------3--------3--------3--------3-----------|
D|---------------------------------------------------------------------------|
A|------------5-------------------5-----------------5------------------------|
E|---3-------------------3------------------3-----------------3--------------|
                                       ...Impropria para amar sei la   

          D

e|--------------2---------2---------2---------2---------2---------2----------|
B|--------------3---------3---------3---------3---------3---------3----------|
G|--------------2---------2---------2---------2---------2---------2----------|
D|---------0-------------------0---------4---------0-------------------------|
A|----5-4------------0---------------------------------------0---------------|
E|---------------------------------------------------------------------------|
 ...por-que                                       Nao consigo agarrar...

     

e|-------2-------2-------2------2-------2-------2------2-----3-----3---------|
B|-------3-------3-------3------3-------3-------3------3-----3-----3---------|
G|-------2-------2-------2------2-------2-------2------2-----2-----2---------|
D|--0--------4-------0--------------0-------4-------0------------------------|
A|--------------------------0-----------------------------4-----3-----1-0----|
E|---------------------------------------------------------------------------|
                                          ...pedacos do que foste e nin-guem

  
        Gm

e|-------3---------3---------3--------3--------3--------3--------3-----------|
B|-------3---------3---------3--------3--------3--------3--------3-----------|
G|-------3---------3---------3--------3--------3--------3--------3-----------|
D|---------------------------------------------------------------------------|
A|------------5-------------------5-----------------5------------------------|
E|---3-------------------3------------------3-----------------3--------------|
     ve.                                  Rendido ao teu sofa...    


         
e|-------3---------3--------3--------3--------3--------3--------3--------3---|
B|-------3---------3--------3--------3--------3--------3--------3--------3---|
G|-------3---------3--------3--------3--------3--------3--------3--------3---|
D|---------------------------------------------------------------------------|
A|--5-------------------5-----------------5-----------------5----------------|
E|-----------3------------------3------------------3-----------------3-------|
                                             ...Descanso agora em sono

          D

e|--------------2---------2---------2---------2---------2---------2----------|
B|--------------3---------3---------3---------3---------3---------3----------|
G|--------------2---------2---------2---------2---------2---------2----------|
D|---------0-------------------0---------4---------0-------------------------|
A|----5-4------------0---------------------------------------0---------------|
E|---------------------------------------------------------------------------|
    mal dormido.                                  Pretendo esclarecer o...



e|-------2-------2-------2------2-------2-------2------2-----3-----3---------|
B|-------3-------3-------3------3-------3-------3------3-----3-----3---------|
G|-------2-------2-------2------2-------2-------2------2-----2-----2---------|
D|--0--------4-------0--------------0-------4-------0------------------------|
A|--------------------------0-----------------------------4-----3-----1-0----|
E|---------------------------------------------------------------------------|
                                              ...do nosso amor... an-da per

                              REFRAO

   Gm                                      Cm

e|-------3---------3---------3--------3--------3--------3--------3-----------|
B|-------3---------3---------3--------3--------4--------4--------4-----------|
G|-------3---------3---------3--------3--------5--------5--------5-----------|
D|---------------------------------------------------5-----------------------|
A|------------5-------------------5---------3-----------------3--------------|
E|---3-------------------3---------------------------------------------------|
 ...dido.                        Eu        sei                   que 


                                                 Gm

e|--------3--------3--------3--------3--------3--------3---------3-----------|
B|--------4--------4--------4--------4--------4--------3---------3-----------|
G|--------5--------5--------5--------5--------5--------3---------3-----------|
D|---5------------------5-----------------5----------------------------------|
A|-------------3-----------------3--------------------------5----------------|
E|-------------------------------------------------3-----------------3-------|

       nao   e   facil   conversar  nem   deci - dir...


                                                  D

e|-------3---------3--------3--------3--------3--------2--------2--------2---|
B|-------3---------3--------3--------3--------3--------3--------3--------3---|
G|-------3---------3--------3--------3--------3--------2--------2--------2---|
D|------------------------------------------------0------------------0-------|
A|--5-------------------5-----------------5-4---------------0----------------|
E|-----------3------------------3--------------------------------------------|
                      ...sem cor      vamos-mentir...



e|-----------2-----------2---------2--------------2--------------2-----------|
B|-----------3-----------3---------3--------------3--------------3-----------|
G|-----------2-----------2---------2--------------2--------------2-----------|
D|----4------------0----------------------0--------------4-------------------|
A|---------------------------0-----------------------------------------------|
E|---------------------------------------------------------------------------|


   Gm                                      Cm

e|-------3---------3---------3--------3--------3--------3--------3-----------|
B|-------3---------3---------3--------3--------4--------4--------4-----------|
G|-------3---------3---------3--------3--------5--------5--------5-----------|
D|---------------------------------------------------5-----------------------|
A|------------5-------------------5---------3-----------------3--------------|
E|---3-------------------3---------------------------------------------------|
 ...real.                        Eu        sei                   que


                                                 Gm

e|--------3--------3--------3--------3--------3--------3---------3-----------|
B|--------4--------4--------4--------4--------4--------3---------3-----------|
G|--------5--------5--------5--------5--------5--------3---------3-----------|
D|---5------------------5-----------------5----------------------------------|
A|-------------3-----------------3--------------------------5----------------|
E|-------------------------------------------------3-----------------3-------|

       nao   e   facil   conversar  nem   deci - dir...
                

                                                  D

e|-------3---------3--------3--------3--------3--------2--------2--------2---|
B|-------3---------3--------3--------3--------3--------3--------3--------3---|
G|-------3---------3--------3--------3--------3--------2--------2--------2---|
D|------------------------------------------------0------------------0-------|
A|--5-------------------5-----------------5-4---------------0----------------|
E|-----------3------------------3--------------------------------------------|
                      ...sem cor      vamos-mentir...



e|-----------2-----------2----------2-------------2--------------------------|
B|-----------3-----------3----------3-------------3--------------------------|
G|-----------2-----------2----------2-------------2--------------------------|
D|----4------------0---------------------------------------------------------|
A|---------------------------4------------3-------------1-0------------------|
E|---------------------------------------------------------------------------|


   Gm                                      F

e|-------3---------3---------3--------3--------1--------1--------1-----------|
B|-------3---------3---------3--------3--------1--------1--------1-----------|
G|-------3---------3---------3--------3--------2--------2--------2-----------|
D|---------------------------------------------------------------------------|
A|------------5-------------------5-----------------3------------------------|
E|---3-------------------3------------------1------------------1-------------|
 ...real.                                  Pa     ra      ra     rai


               D
e|--------------------2----------2-----------2-----------2-------------------|
B|--------------------3----------3-----------3-----------3-------------------|
G|--------------------2----------2-----------2-----------2-------------------|
D|--------------0-----------------------0-----------4------------------------|
A|----3-4-------------------0------------------------------------------------|
E|---------------------------------------------------------------------------|

ra    rau      Pa     ra      ra      rai     ra     rau 


    Gm

e|-------3---------3--------3--------3--------3--------3--------3--------3---|
B|-------3---------3--------3--------3--------3--------3--------3--------3---|
G|-------3---------3--------3--------3--------3--------3--------3--------3---|
D|---------------------------------------------------------------------------|
A|--5-------------------5-----------------5-----------------5----------------|
E|-----------3------------------3------------------3-----------------3-------|

     Pa    ra     ra     rai    ra     ra     rai     ra     ra     rau



      F

e|-----------1------------1-------------1------------------------------------|
B|-----------1------------1-------------1------------------------------------|
G|-----------2------------2-------------2------------------------------------|
D|---------------------------------------------------------------------------|
A|------------------3--------------------------------------------------------|
E|-----1--------------------------1------------------------------------------|
      Pa     ra      ra     rai



               D
e|--------------------2----------2-----------2-----------2-------------------|
B|--------------------3----------3-----------3-----------3-------------------|
G|--------------------2----------2-----------2-----------2-------------------|
D|--------------0-----------------------0-----------4------------------------|
A|----3-4-------------------0------------------------------------------------|
E|---------------------------------------------------------------------------|

ra    rau      Pa     ra      ra      rai     ra     rau 


    Gm

e|-------3---------3--------3--------3--------3--------3--------3--------3---|
B|-------3---------3--------3--------3--------3--------3--------3--------3---|
G|-------3---------3--------3--------3--------3--------3--------3--------3---|
D|---------------------------------------------------------------------------|
A|--5-------------------5-----------------5-----------------5----------------|
E|-----------3------------------3------------------3-----------------3-------|

     Pa            ra            rai              ra               rau..."





O resto da musica e igual ao que ja apresentei em cima, tanto os versos como o refrao:


A leve embriaguez passa a febre
Num quente desconforto de um mendigo
Que aguarda numa esperanca duvidosa
O gesto carinhoso de um abrigo

Pensar, sentir, querer, e tao confuso
A sensacao da dor esta revelada
Agora o que fazemos de nos dois?
Vivemos como se nao fosse nada

Eu sei
Que nao e facil conversar nem decidir
Nem tudo e falso e sem cor vamos mentir
Que a perversao sera ainda mais real

Eu sei
Que nao e facil conversar nem decidir
Nem tudo e falso e sem cor vamos mentir
Que a perversao sera ainda mais real
Suggest correction
Give kudos to tab author, rate the tab!
1 2 3 4 5
comments
print report bad tab
guest
You may want to rate the tab now too:
select rating
Wanna post a correction for this tab? Suggest correction