Oops, an error
Loading. Please wait.

Green And Grey tab

version 2
version 2

Whole song

67 views 1 this week
1 commentread comment
1 2 3 4 5
2 more votes to show rating
add to favorites
×
Save as Personal and add changes to this tab that will be seen only by you. Learn more ›
×
You can save this tab as Personal to edit and correct it or add notes. All changes will be seen only by you. Learn more »
launch autoscroll
font size
0
reset
how to read this tab
guitar tuner
edit
Autoscroll
slow
fast
+/-
esc
set tempo
stop
Author
Difficulty
-------------------------------------------------------------------------------
                             Green and Grey - Virginia Coalition
-------------------------------------------------------------------------------
Tabbed by: Brendan O'Gorman
*If you have any questions about the tab, leave a comment on my Youtube page 
(just called "Brendan O'Gorman")and I'll answer. This is my first tab so I hope it's useful!*


Tuning: Standard (EADGBe)


Main Riff High Harmony:
e|---------------------------------------------------------------------------|
B|----------------------------------------10---------------------------------|
G|-9/11-11-9------9/11-9-7---------7--9/11-----9/11--9----7-6-4--------------|
D|-----------------------------7h9-------------------------------------------|
A|---------------------------------------------------------------------------|
E|---------------------------------------------------------------------------|

e|---------------------------------------------------------------------------|
B|----------------10-8-7-------------------10--------------------------------|
G|-9/11-11-9-------------9-7-------7--9/11-----9/11--9----7-6-4--------------|
D|------------------------------7h9------------------------------------------|
A|---------------------------------------------------------------------------|
E|---------------------------------------------------------------------------|

Main Riff Low Harmony:
e|---------------------------------------------------------------------------|
B|-----------------------------------------7---------------------------------|
G|-6/7-7-6------6/7-6-4------------4--6/7-----6/7--6----4-6-7----------------|
D|-----------------------------4h7-------------------------------------------|
A|---------------------------------------------------------------------------|
E|---------------------------------------------------------------------------|

e|---------------------------------------------------------------------------|
B|----------------7-5-----------------------7--------------------------------|
G|-6/7-7-6------------7-6-4---------4--6/7-----6/7--6----4-6-7---------------|
D|------------------------------4h7------------------------------------------|
A|---------------------------------------------------------------------------|
E|---------------------------------------------------------------------------|

Verse (Clean tone):
    Bm    A          F#m
e|---2----------------2----2-----------------------------|
B|---3----2-----------2----2h3---------------------------|
G|---4----2-----------2----2-----------------------------|
D|---4----2-----------4----2h4---------------------------|
A|---2----------------4----2-----------------------------|
E|--------------------2----2-----------------------------|
     Fade as if to a whisper...

Chorus (With very light distortion/drive):
     D    A   Bm    G    D    A   Bm    A    G
e|---2---------2----3----2---------2---------3------------|
B|---3----2----3----0----3----2----3----2----0------------|
G|---2----2----4----0----2----2----4----2----0------------|
D|---0----2----4----0----0----2----4----2----0------------|
A|-------------2----2--------------2---------2------------|
E|------------------3------------------------3------------|
 ...rains came turnin' us...

Fill (1:31)
e|---------------------------------------------------------------------------|
B|-------10-x-x-10-x-x-x-10-x-x-10-x-x-10-x-x-10-x-x-x-10-x-x-10-------------|
G|---------------------------------------------------------------------------|
D|---------------------------------------------------------------------------|
A|---------------------------------------------------------------------------|
E|---------------------------------------------------------------------------|

e|---------------------------------------------------------------------------|
B|-------10-x-x-10-x-x-x-10-x-x-10-x-x-10-x-x-10-x-x-x-10-x-x-10-------------|
G|---------------------------------------------------------------------------|
D|---------------------------------------------------------------------------|
A|---------------------------------------------------------------------------|
E|---------------------------------------------------------------------------|

Fill (2:08)
e|-----------------10--------------------------------------------------------|
B|---/9b11~~~-------10-------------------------------------------------------|
G|-------------------9b~~-7------------7--9----------------------------------|
D|---------------------------------7h9------7h9------------------------------|
A|---------------------------------------------------------------------------|
E|---------------------------------------------------------------------------|

Fill (2:20)
e|---------------------------------------------------------------------------|
B|---------------------------------------------------------------------------|
G|-----7--7--7--9--7--9---9/11--7/9--7~~~/19---------------------------------|
D|---------------------------------------------------------------------------|
A|---------------------------------------------------------------------------|
E|---------------------------------------------------------------------------|

Fill (2:27)
e|-----------------------------------------------10~~~-----------------------|
B|------------------------------------------10-------------------------------|
G|-------------2-------------7--7-------9/11---------------------------------|
D|--0--0h2--4------------7h9-------------------------------------------------|
A|---------------------------------------------------------------------------|
E|---------------------------------------------------------------------------|

Bridge (2:39) x2
e|---------------------------------------------------------------------------|
B|---------------------------------------------------------------------------|
G|----9-------9------9---------2-----4---------------------------------------|
D|----9-------9------9---------2-----4---------------------------------------|
A|----7-----xx6------7---------0-----2---------------------------------------|
E|---------------------------------------------------------------------------|

Solo (2:54)
e|----10~~~------------------------------------------------------------------|
B|------------10~~~-------------------------12-------------------------------|
G|--/11-------------------------9--11--11/13----11p9--11--11-----------------|
D|----------/11------------9/11----------------------------------------------|
A|---------------------------------------------------------------------------|
E|---------------------------------------------------------------------------|

e|---------------------------------------------------12-----12-----12-----12-|
B|--------------------------------------------------9---9h10---10p9---9h10---|
G|---------9-------------------------11b--9--11--11--------------------------|
D|----9h11---11--9--7--------------------------------------------------------|
A|---------------------11--9--7----------------------------------------------|
E|---------------------------------------------------------------------------|

e|-----12-----12-----12---12-------------------------------------------------|
B|-10p9---9h10---10p9---9----9--7--5--7--7/9--9--7~~~------------------------|
G|---------------------------------------------------9~~---------------------|
D|--------------------------------------------------------5~~----------------|
A|---------------------------------------------------------------------------|
E|---------------------------------------------------------------------------|

e|----------10-----------------------------12-------12-----------------------|
B|------------10----------10-------------12--12---12--12---12---12---12---12-|
G|---/11~~------11----------11-----xx/13-------/13------/13--/13--/13--/13---|
D|-----------------xx/11~~----11---------------------------------------------|
A|---------------------------------------------------------------------------|
E|---------------------------------------------------------------------------|

High section of Solo (3:20) x8
e|--14-14-12--14-14-12--14-14-12--12------14-14-12--14-14-12--14-14-12--12---|
B|----------12--------12--------12----------------12--------12--------12-----|
G|---------------------------------------------------------------------------|
D|---------------------------------------------------------------------------|
A|---------------------------------------------------------------------------|
E|---------------------------------------------------------------------------|

e|---------------------------------------------------------------------------|
B|---------------------12----------------------------------------------------|
G|--------9--11--11/13----11p9--11--11----------9----------------------------|
D|---9/11----------------------------------9h11---11--9--7-------------------|
A|----------------------------------------------------------11--9--7---------|
E|---------------------------------------------------------------------------|

e|-------------------12-----12-----12-----12-----12-----12-----12---12-------|
B|-----------------9---9h10---10p9---9h10---10p9---9h10---10p9---9-----------|
G|--11b--9--11--11-----------------------------------------------------------|
D|---------------------------------------------------------------------------|
A|---------------------------------------------------------------------------|
E|---------------------------------------------------------------------------|

e|---------------------------------------------------------------------------|
B|---9--7--5--7--7--7/9~~~~~~~~~---------------------------------------------|
G|---------------------------------------------------------------------------|
D|---------------------------------------------------------------------------|
A|---------------------------------------------------------------------------|
E|---------------------------------------------------------------------------|

END

************************************

| /   slide up
| \   slide down
| h   hammer-on
| p   pull-off
| ~   vibrato
| +   harmonic
| x   Mute note
| b   Bend
| pb  Pre-bend
| br  Bend release
| pbr Pre-bend release
| brb Bend release bend

************************************

            
            
Suggest correction
Creating personal tab
Creating personal tab
You can edit any tab online and save it as your Personal.

You can edit, replace or remove any tab part or add personal notes – all changes will be seen only by you.

Personal tabs can be accessed anytime from any device, even offline.
Learn more »
Give kudos to tab author, rate the tab!
1 2 3 4 5
comments
print report bad tab
1 comment total.
0 reply
ms65786 10 Sep 09, 2017 10:54 PM

you crushed this tab, spot on

guest
You may want to rate the tab now too:
select rating
Wanna post a correction for this tab? Suggest correction