Oops, an error
Loading. Please wait.

Hay Que Salir Del Agujero Interior tab

by Virus
52 views 3 this week
no commentswrite comment
1 2 3 4 5
3 more votes to show rating
add to favorites
×
Save as Personal and add changes to this tab that will be seen only by you. Learn more ›
×
You can save this tab as Personal to edit and correct it or add notes. All changes will be seen only by you. Learn more »
launch autoscroll
font size
0
reset
how to read this tab
guitar tuner
edit
Autoscroll
slow
fast
+/-
esc
set tempo
stop
                                      Riff1
    Hay que salir del agujero interior
 E5                      F#5          Riff1
    largar la piña en otra direccion
 E5                       F#5         Riff1
    no hace falta ser un ser superior (todo depende de la transpiracion)
 E5                       F#5
    poner el cuerpo y el bocho en accion

 C#5                     A#5
    A la vida hay que hacerle el amor
 C#5                  A#5 
    sin drama, con locura y pasion
 C#5               A#5
    jugar con la imaginacion 
 C#5                 A#5        G#5 Riff3
    sin tener que pedir perdon.

Riff2 x 2

 E5                       F#5          Riff1
    Hay que salir del agujero interior
    largar la piña en otra direccion
    no hace falta ser un ser superior
    todo depende de la transpiracion
    poner el cuerpo y el bocho en accion

    A la vida hay que hacerle el amor
    sin drama, con locura y pasion
    jugar con la imaginacion 
    sin tener que pedir perdon.

Riff2 x 2
Solo

    A la vida hay que hacerle el amor
    sin drama, con locura y pasion
    jugar con la imaginacion 
    sin tener que pedir perdon.

Riff2 x 2

    Hay que salir del agujero interior.

~ = Vibrato
\ = Deslizamiento descendente
/ = Deslizamiento ascendente
h = Ligadura
( ) = Estirar cuerda hasta nota traste (xx)

e |-------------------|
B |-------------------|
G |-------------------|
D |-------------------|
A |-9-9-7\9-9-7\9-9-9-|
E |-7-7-5\7-7-5\7-7-7-|
    B5  A5
           Riff1
e |-------------------------------------|
B |-9-7-----------------9-7-------------|
G |-----7-8-6---6-8-6-------7-8-6---6-8-|
D |-----------9-------9-----------9-----|
A |-------------------------------------|
E |-------------------------------------|
                   Riff2

e |-------------------------------------|
B |-------------------------------------|
G |-------------------------------------|
D |-6-4-6---4-------6-4-6---------------|
A |-------6---4-6---------6-5\----------|
E |---------------4---------------------|
                   Riff3


e |-----------------------|
B |-----------------------|
G |-----------6-----------|
D |--9---11---6----8------|
A |--7---9----4----8---6--|
E |----------------6---4--|
     E5  F#5  C#  A#5 G#5

Solo

e |-------------------12--------------------------|
B |-7h9h7-----------------------------------------|
G |-------6-9---11-13h---13-11~-------------------|
D |-----------9-----------------------------------|
A |-----------------------------9-9-7\9-9-7\9-9-9-|
E |-----------------------------7-7-5\7-7-5\7-7-9-|

e |------9-11(12)-11(12)------9-9-----------------------------------|
B |-9-12-----------------9h12---------------9-----------------------|
G |-------------------------------9h11-9-11---11~-------------------|
D |-----------------------------------------------------------------|
A |-----------------------------------------------9-9-7\9-9-7\9-9-9-|
E |-----------------------------------------------7-7-5\7-7-5\7-7-7-|
Suggest correction
Creating personal tab
Creating personal tab
You can edit any tab online and save it as your Personal.

You can edit, replace or remove any tab part or add personal notes – all changes will be seen only by you.

Personal tabs can be accessed anytime from any device, even offline.
Learn more »
Give kudos to tab author, rate the tab!
1 2 3 4 5
comments
print report bad tab
guest
Wanna post a correction for this tab? Suggest correction