Oops, an error
Loading. Please wait.

Luna De Miel En La Mano tab

by Virus
254 views 1 this week
no commentswrite comment
1 2 3 4 5
3 more votes to show rating
add to favorites
×
Save as Personal and add changes to this tab that will be seen only by you. Learn more ›
×
You can save this tab as Personal to edit and correct it or add notes. All changes will be seen only by you. Learn more »
launch autoscroll
font size
0
reset
how to read this tab
guitar tuner
edit
Autoscroll
slow
fast
+/-
esc
set tempo
stop
este tema la escuche ayer la sake ahorita
me recorde de un profe de kimica profe julio de corazon de jesus
q jodia a los pajeroles d mi lonsa y esta rola
va para todos mis amios manueleros
lorenzo josimar julio ernesto augusto y lokillo
sobre todo lorenzo flores
intro:
   LAm-rem/lam-REm
   LAm-rem/lam-REm
    LAm          REm
e---5-5---7b--5--5-5----9b----------
B---5-5----------6-6----------------
G---5-5----------7-7----------------
D---7-7----------7-7----------------
A---7-7----------5-5----------------
E---5-5----------------------------- ( por dos veces) y comiensa
LAm            REm
Tu imaginación me programa en vivo
LAm           REm
llego volando y me arrojo sobre ti
LAm                REm
salto en la música,entro en tu cuerpo
LAm           REm
cometa Halley,cópula y sueño
FA5  SOL5         LAm
tuyo,tuyo,luna de miel, luna de miel

    LAm-rem/lam-REm

LAm               REm
tu madre no podrá interceptarme
LAm                REm
perfecto,hermoso,veloz,luminoso

    LAm-rem/lam-REm

FA5
caramelos de miel entre tus manos
SOL5
te prometo una cita ideal
LA5                  REm
adorando la vitalidad

e----------------------------------------
B---/10v---13--12------------------------
G-------------------7---9--10----9h10p9--
D----------------------------------------
A----------------------------------------
E----------------------------------------

FA5  SOL5          LAm
tuyo,tuyo,luna de miel
LAm
luna de miel

LAm-rem/lam-REm
LAm-rem/lam-REm
    LAm          REm
e---5-5---7b--5--5-5----9b----------
B---5-5----------6-6----------------
G---5-5----------7-7----------------
D---7-7----------7-7----------------
A---7-7----------5-5----------------
E---5-5-----------------------------  dos veces

LAm            REm
Tu imaginación me programa en vivo
LAm           REm
llego volando y me arrojo sobre ti
LAm                REm
salto en la música,entro en tu cuerpo
LAm           REm
cometa Halley,cópula y sueño
FA5  SOL5          LAm
tuyo,tuyo,luna de miel, luna de miel

    LAm-rem/lam-REm

FA5
caramelos de miel entre tus manos
SOL5
te prometo una cita ideal
LAm                   REm
adorando la vitalidad.
e----------------------------------------
B---/10v---13--12------------------------
G-------------------7---9--10----9h10p9--
D----------------------------------------
A----------------------------------------
E----------------------------------------

FA5  SOL5         LAm
Oso,tuyo,luna de miel
LAm
luna de miel

LAm-rem/lam-REm
LAm-rem/lam-REm
   LAm          REm
e---5-5---7b--5--5-5----9b----------
B---5-5----------6-6----------------
G---5-5----------7-7----------------
D---7-7----------7-7----------------
A---7-7----------5-5----------------
E---5-5-----------------------------


bueno y si no saves q es un kinta es esto
e----------------------
B----------------------
g----------------------
D--3----5---7----------
A--3----5---7----------
E--1----3---5----------
  FA5  SOL5 LA5

            
            
Suggest correction
Creating personal tab
Creating personal tab
You can edit any tab online and save it as your Personal.

You can edit, replace or remove any tab part or add personal notes – all changes will be seen only by you.

Personal tabs can be accessed anytime from any device, even offline.
Learn more »
Give kudos to tab author, rate the tab!
1 2 3 4 5
comments
print report bad tab
guest
Wanna post a correction for this tab? Suggest correction