Oops, an error
Loading. Please wait.

Persuadida tab

by Virus
11 views 1 this week
no commentswrite comment
1 2 3 4 5
3 more votes to show rating
add to favorites
×
Save as Personal and add changes to this tab that will be seen only by you. Learn more ›
×
You can save this tab as Personal to edit and correct it or add notes. All changes will be seen only by you. Learn more »
launch autoscroll
font size
0
reset
how to read this tab
guitar tuner
edit
Autoscroll
slow
fast
+/-
esc
set tempo
stop
Intro

Riff1 Riff2 (x2)
              
Riff1                       Riff2
   Se asoma a la ventana y mira,
Riff1                       Riff2
   se siente distanciada y llora
Riff1                     Riff2
   No puede entregarse a nadie
Riff1                     Riff2
   esta muy persuadida y sola.

B5                 A5 
   (Oh, oh) Vida nueva al sol,
B5                 A5
   (Oh, oh) con ratos de amor
B5                 A5
   (Oh, oh) Sueña que es verdad
B5                   A5
   (Oh, oh) No va a despertar.

Riff1 Riff2 (x2)

   Vive la vida día a día,
   contando el paso de las horas.
   No puede estar sin observarse,
   está muy persuadida y sola.

   (Oh, oh) Vida nueva al sol,
   (Oh, oh) con ratos de amor
   (Oh, oh) Sueña que es verdad
   (Oh, oh) No va a despertar.

B A

Riff3 (Teclado) (x4)

Riff1 Riff2 (x2)

   Se asoma a la ventana y mira...
   
   (Oh, oh) Vida nueva al sol...

B A

Riff3 (Teclado) (x4)

B A

Acordes

Referencia

h = ligadura

e |-------------------------------|
B |-------------------------------|
G |-------------------------------|
D |-------------------------------|
A |-2-4-2-4-2h4-2-4-2-4-2-4-2h4-2-|
E |-------------------------------|
               Intro
e |-------------------|
B |-------------------|
G |-------------------|
D |-------------------|
A |-2-2-4-2-4-2h4-2-4-|
E |-------------------|
          Riff1
e |-----------------|
B |-----------------|
G |-----------------|
D |-----------------|
A |-----------------|
E |-2-2-4-2-4-2h4-2-|
          Riff2

e |--------------------------------|
B |--------------------------------|
G |-9-8----------------------------|
D |-----9-7-9-7----------7-------7-|
A |-------------9--6-7-9---6-7-9---|
E |--------------------------------|
          Riff3 (Teclado)

e |----------2---0--|
B |----------4---2--|
G |----------4---2--|
D |--4---2---4---2--|
A |--2---0---2---0--|
E |----------2------|
     B5  A5  B   A

            
            
Suggest correction
Creating personal tab
Creating personal tab
You can edit any tab online and save it as your Personal.

You can edit, replace or remove any tab part or add personal notes – all changes will be seen only by you.

Personal tabs can be accessed anytime from any device, even offline.
Learn more »
Give kudos to tab author, rate the tab!
1 2 3 4 5
comments
print report bad tab
guest
Wanna post a correction for this tab? Suggest correction