Oops, an error
Loading. Please wait.

Wadu Wadu tab

by Virus
161 views 1 this week
no commentswrite comment
1 2 3 4 5
3 more votes to show rating
add to favorites
×
Save as Personal and add changes to this tab that will be seen only by you. Learn more ›
×
You can save this tab as Personal to edit and correct it or add notes. All changes will be seen only by you. Learn more »
launch autoscroll
font size
0
reset
how to read this tab
guitar tuner
edit
Autoscroll
slow
fast
+/-
esc
set tempo
stop
Intro (x4)

Am    D     F  G     Am        D     F  G
Me estás pasando, tu horrible depresión
Am D       F  G     Am    D    F  G  Riff1
estás muy tensa perdiste la razón
Los días pasan y seguís siempre igual
voy a sacarte del nivel en que estás. 

C5 F C F C...

      F           C          F       C     
Este sábado a la noche te paso a buscar
a bailar el Wadu-Wadu que te va a gustar
te prometo invitarte muchas veces más
todo el tiempo Wadu Wadu para re-relajar.

Intro (x4)

Me estás pasando, tu horrible depresión
estás muy tensa perdiste la razón
Los días pasan y seguís siempre igual
voy a sacarte del nivel en que estás. 

Este sábado a la noche te paso a buscar
a bailar el Wadu-Wadu que te va a gustar
te prometo invitarte muchas veces más
todo el tiempo Wadu-Wadu para re-relajar.

Intro (x4) A5

Riff2
Wadu wadu wadu...


Acordes

e |-------------------------------|
B |-------------------------------|
G |-------------------------------|
D |-5-6-7-7-5-7-----5-6-7-5-6-7-7-|
A |-------------7-7---------------|
E |-------------------------------|
              Intro

e |-------------------|
B |-------------------|
G |-----------------5-|
D |-----------5-7-9---|
A |-5-7-8-7-5---------|
E |-------------------|
         Riff1

e |------------8----12-8--------8-------|
B |--8-9-10-10---10------8-9-10---10-8--|
G |-------------------------------------|
D |-------------------------------------|
A |-------------------------------------|
E |-------------------------------------|
         Riff2


e |--5---5-------3---3----------|
B |--5---7---4---5---3----------|
G |--5---7---5---5---4----------|
D |--7---7---7---5---5----------|
A |--7---5---8---3---5---5---7--|
E |--5---5---5---3---3---3---5--|
    Am   D   F   C   G   C5  A5

            
            
Suggest correction
Creating personal tab
Creating personal tab
You can edit any tab online and save it as your Personal.

You can edit, replace or remove any tab part or add personal notes – all changes will be seen only by you.

Personal tabs can be accessed anytime from any device, even offline.
Learn more »
Give kudos to tab author, rate the tab!
1 2 3 4 5
comments
print report bad tab
guest
Wanna post a correction for this tab? Suggest correction