Oops, an error
Loading. Please wait.

Wadu Wadu bass

version 2
version 2

Whole song

by Virus
136 views 1 this week
no commentswrite comment
1 2 3 4 5
3 more votes to show rating
add to favorites
×
Save as Personal and add changes to this tab that will be seen only by you. Learn more ›
×
You can save this tab as Personal to edit and correct it or add notes. All changes will be seen only by you. Learn more »
launch autoscroll
font size
0
reset
guitar tuner
edit
Autoscroll
slow
fast
+/-
esc
set tempo
stop
Bueno amigos, les envío una clara partitura de bajo
para tocar este tema. Ojalá que todas las personas 
que envían este tipo de material, lo hicieran en 
bien en una forma entendible para todas las personas.

Hasta la próxima, escuchen el tema para que saquen 
los tiempos de cada nota.

A)INTRO: bajo y guitarra
1---------------------------------/---
2---------------------------------/---
3---------------------------------/-4 veces
4--0-3-5-5-3-3-0-0-3-3-5-5-3-5-5--/---

B)
Me estás pasando, tu horrible depresión
1---------------------------------/-
2---------------------------------/-
3---------------------------------/-
4--5-0-5-5-1-1-1-0-3-3-3-5-5-5----/-

estás muy tensa.. perdiste la razón
1---------------------------------/-
2---------------------------------/-
3---------------------------------/-
4--5-0-5-5-1-1-1-0-3-3-3-5-5-5----/-

C)
intermedio:
1-----------------4-5---/-
2-------5-----5-7-------/-
3---5-7---7-5-----------/-
4-----------------------/-

B)
Los días pasan.. y seguís siempre igual
voy a sacarte.. del nivel en que estás. 

C)
intermedio:
1-----------------4-5------------------/-
2-------5-----5-7-----5-5--------------/-
3---5-7---7-5---------5-5--------------/-
4---------------------3-3-->(10 veces)-/-
   
queda sola la guitarra marcando fa y do

D)
CORO
Este sábado a la noche te paso a buscar
1--------------------------------/-
2---3--3---------3--3------------/-
3---------3--3---------3--3------/-
4--------------------------------/-

a bailar el Wadu-Wadu que te va a gustar
1--------------------------------/-
2---3--3---------3--3------------/-
3---------3--3---------3--3------/-
4--------------------------------/-

te prometo invitarte muchas veces más
1--------------------------------/-
2---3--3---------3--3------------/-
3---------3--3---------3--3------/-
4--------------------------------/-

todo el tiempo Wadu-Wadu para re-relajar
1--------------------------------/-
2---3--3---------3--3---3--3-----/-
3---------3--3-------------------/-
4--------------------------------/-
  
A) introducción

B)
Me estás pasando, tu horrible depresión
estás muy tensa.. perdiste la razón

C)
intermedio:

B)
Los días pasan.. y seguís siempre igual
voy a sacarte.. del nivel en que estás. 

C)
intermedio:

D)
CORO
Este sábado a la noche te paso a buscar
a bailar el Wadu-Wadu que te va a gustar
te prometo invitarte muchas veces más
todo el tiempo Wadu-Wadu para re-relajar

LA pueden finalizar en fa....o en la introducción.

            
            
Suggest correction
Creating personal tab
Creating personal tab
You can edit any tab online and save it as your Personal.

You can edit, replace or remove any tab part or add personal notes – all changes will be seen only by you.

Personal tabs can be accessed anytime from any device, even offline.
Learn more »
Give kudos to tab author, rate the tab!
1 2 3 4 5
comments
print report bad tab
guest
Wanna post a correction for this tab? Suggest correction