Oops, an error
Loading. Please wait.

Perfect Place Bass Tab

169 views 1 this week
no commentswrite comment
1 2 3 4 5
3 more votes to show rating
add to favorites
launch autoscroll
font size
0
reset
guitar tuner
Autoscroll
slow
fast
+/-
esc
set tempo
stop
Help us to improve Ultimate-Guitar.com Take our survey!
×
Author
Difficulty
intermediate
- Web site: http://www.myspace.com/v9
- Virus Nine - Perfect Place
- Tabbed by: Pacu, bassist from a brazilian punk rock band called PunkAss.
- Nice basslines. Im not sure about the verse part, maybe I missed something.

__________

Intro [00:16]
G|--------------------------------|----|
D|--------------------------------|----|
A|-5-555555-5-555555----------5---|-2x-|
E|-------------------3-333333---5-|----|

Verse
G|-----5-5--55h7p5-5-----------------|----|
D|--5h7-7--7------7-75---------------|----|
A|-5------------------7----------5---|-1x-|
E|----------------------3-333333---5-|----|

G|--75-5---------------------------|----|
D|----7-75-4h5p4754h5--------------|----|
A|-5---------------------------5---|-1x-|
E|--------------------3-333333---5-|----|

G|----------7p5-5-----------------|----|
D|-----5-5h7---7-75---------------|----|
A|-55h7-7----------7----------5---|-1x-|
E|-------------------3-333333---5-|----|

G|--7-5---------------------|----|
D|------7-5-4---------------|----|
A|-5-X-X-X-X-7----------5---|-1x-|
E|-------------3-333333---5-|----|

Chorus
G|---------------------------------|----|
D|---------------------------------|----|
A|-----------2-3-4-5-4-3-2---------|-2x-|
E|-3-2-3-4-5---------------5-4-3-2-|----|

G|-------------------------7-5-4---|----|
D|-------------------4-5-7-------7-|----|
A|-----------2-3-4-5---------------|-1x-|
E|-3-2-3-4-5-----------------------|----|

G|-----------4-5-6------------------|----|
D|-5-4-5-6-7------------------------|----|
A|-----------------5555555555555555-|-1x-|
E|----------------------------------|----|

Verse
Chorus

Guitar Solo
G|--------------------------------|----|
D|--------------------------------|----|
A|-5-555555-5-555555----------5---|-4x-|
E|-------------------3-333333---5-|----|

Chorus
G|---------------------------------|----|
D|---------------------------------|----|
A|-----------2-3-4-5-4-3-2---------|-2x-|
E|-3-2-3-4-5---------------5-4-3-2-|----|

G|-------------------------7-5-4---|----|
D|-------------------4-5-7-------7-|----|
A|-----------2-3-4-5---------------|-1x-|
E|-3-2-3-4-5-----------------------|----|

G|-----------4-5-6------------------|----|
D|-5-4-5-6-7------------------------|----|
A|-----------------5555555555555555-|-1x-|
E|----------------------------------|----|


Verse
G|-----5-5--55h7p5-5-----------------|----|
D|--5h7-7--7------7-75---------------|----|
A|-5------------------7----------5---|-1x-|
E|----------------------3-333333---5-|----|

G|--75-5---------------------------|----|
D|----7-75-4h5p4754h5--------------|----|
A|-5---------------------------5---|-1x-|
E|--------------------3-333333---5-|----|

G|----------7p5-5-----------------|----|
D|-----5-5h7---7-75---------------|----|
A|-55h7-7----------7----------5---|-1x-|
E|-------------------3-333333---5-|----|

G|--7-5---------------------|----|
D|------7-5-4---------------|----|
A|-5-X-X-X-X-7----------5---|-1x-|
E|-------------3-333333---5-|----|


Ending Chorus
G|---------------------------------|----|
D|---------------------------------|----|
A|-----------2-3-4-5-4-3-2---------|-2x-|
E|-3-2-3-4-5---------------5-4-3-2-|----|

G|-------------------------7-5-4---|----|
D|-------------------4-5-7-------7-|----|
A|-----------2-3-4-5---------------|-1x-|
E|-3-2-3-4-5-----------------------|----|

G|-----------4-5-6------------------|----|
D|-5-4-5-6-7------------------------|----|
A|-----------------5555555555555555-|-1x-|
E|----------------------------------|----|

G|---|----|
D|---|----|
A|-5-|-1x-|
E|---|----|
Suggest correction
Give kudos to tab author, rate the tab!
1 2 3 4 5
comments
print report bad tab
guest
You may want to rate the tab now too:
select rating
Wanna post a correction for this tab? Suggest correction