Oops, an error
Loading. Please wait.

Viola Tab

738 views 1 this week
no commentswrite comment
1 2 3 4 5
please rate
add to favorites
launch autoscroll
font size
0
reset
how to read this tab
guitar tuner
Tab Pro tools
  • play this tab
  • loop segment
  • change instrument
  • show fretboard
  • metronome
Autoscroll
slow
fast
+/-
esc
set tempo
stop
Contributor
Band- Vision Of Disorder
Song- Viola

1:---------------------------------------|
2:---------------------------------------|
3;---------------------------------------|
4:---------------------------------------|
5:--22222222222--6-10--22222222222--6-9--|
6:--22222222222--6-10--22222222222--6-9--|  (2x)
     Note: All 2's are Palm Muted as well as the 8 with the X over it..

1:-------------|
2:-------------|
3;-------------|
4:----X--------|
5:--6-8-10-4---|
6:--6-8-10-4---|

1:-----------|
2:-----------|
3;-----------|
4:-----------|
5:--2-2222-2-|
6:--2-2222-2-|

1:-----------|
2:-----------|
3;-----------|
4:-----------|
5:-2222233355
6:-2222233355
    Palm Muted.

1:-----------|
2:-----------|
3;-----------|
4:-----------|
5:-2-2222-2--|
6:-2-2222-2--|

1:-------------0-|
2:------------0--|
3;-----------3---|           :    0
4:---------------|    OR     :   0
5:-2-2222-2------|           :  2
6:-2-2222-2------|

1:-----------------------------|
2:-----------------------------|
3:-----------------------------|
4:--------XXXXXX---------------|
5:-4X7674-444444-2X5451-222222-|
6:-4X7674-444444-2X5451-222222-|

1:--------------------|
2:--------------------|
3:--------------------|
4:--------------------|
5:-2-X-xx-xxxx-x-8^---|
6:-2-X-xx-xxxx-x-8^---|

1:------------------------|
2:------------------------|
3:------------------------|
4:------------------------|
5:--2-2-22-22-22-22-4-5-7-|
6:--2-2-22-22-22-22-4-5-7-|

1:---------------------|
2:---------------------|
3:---------------------|
4:---------------------|
5:-4^44^44^4^4-0-------|
6:-4^44^44^4^4-0-------|    or 6 instead of 4, or 7, or 8.. :)


1:---------------------|
2:---------------------|
3:---------------------|
4:---------------------|
5:---------------------|
6:-88888\7\X\2---------|


1:---------------------|
2:---------------------|
3:---------------------|
4:----2----4---0-------|
5:---0----0---0--------|
6:--5----5---5---------|

1:---------------------|
2:---------------------|
3:---------------------|
4:---------------------|
5:---------------------|
6:--XX8-XX0------------|
comments
We did not receive enough feedback on this tab! Please rate:
print report bad tab
1 2 3 4 5
I want to post or [tab]
guest
You may want to rate the tab now too:
select rating
Please do not post tabs as comments. Select "correction" instead!