Oops, an error
Loading. Please wait.

Disconnection chords

31 views 3 this week
no commentswrite comment
1 2 3 4 5
3 more votes to show rating
add to favorites
×
Save as Personal and add changes to this tab that will be seen only by you. Learn more ›
×
You can save this tab as Personal to edit and correct it or add notes. All changes will be seen only by you. Learn more »
launch autoscroll
font size
0
reset
transpose
0
reset
display chords
guitar tuner
edit
Autoscroll
slow
fast
+/-
esc
set tempo
stop
Author
Difficulty
Strumming Is this strumming pattern correct? Yes No
120 bpm
1
2
3
4
5
6
7
8
9
10
11
12
13
14
Listen
[Note]
count like this
1 2 3 4 1 2 1 2 3 4 1 2 3 4
Am      F   C       C
(repeat this the whole time until outro)

[Intro]
Am Am Am Am 
Am F C C

[Verse 1]
Am                   F      C   C
    change is coming faster now
Am                     F        C    C
    I cannot keep this world in mine
Am                          F          C   C
    burn these curtains and lead me behind

[Chorus 1]
     Am               F   C    C
just come and take my sky away
     Am               F   C    C
just come and take my sky away

[Verse 2]
Am                    F          C     C
    fly your anchors, drown your kites
Am                         F      C    C
    the city sleeps far behind my eyes
Am                        F               C     C
    blind to blindness my lies have turned real

[Chorus 2]
Am               F        C      C
    I can barely feel the ground
Am               F        C      C
    I can barely feel the ground

[Bridge]
  Am
I leave while there's time
          F             C          C
I've been following the final line
   Am
recovering the past
       F
got me nowhere
  C     C
I tried
            Am
and at this stage I'm not that certain
        F           C    C
I could come back around

[Chorus 1]
     Am               F   C    C
just come and take my sky away
     Am               F   C    C
just come and take my sky away

[Interlude]
Am F C C 4x
Am F C C (damped)

[Verse 3]
Am                      F              C   C
    our old streets run through me now
Am                   F              C   C  
    we return broken mirrors to the sea

[Outro]
N.C.
E|-17-20-15-17-12-15-------|-------------10-13-5-8-|
B|-------------------15-17-|-13-15-10-13-----------|
G|-------------------------|-----------------------|
D|-------------------------|-----------------------|
A|-------------------------|-----------------------|
E|-------------------------|-----------------------| 4x

C
E|-17-20-15-17-12-15-------|-------------10-13-5-8-|
B|-------------------15-17-|-13-15-10-13-----------|
G|-------------------------|-----------------------|
D|-------------------------|-----------------------|
A|-------------------------|-----------------------|
E|-------------------------|-----------------------|

Dm
E|-17-20-15-17-12-15-------|-------------10-13-5-8-|
B|-------------------15-17-|-13-15-10-13-----------|
G|-------------------------|-----------------------|
D|-------------------------|-----------------------|
A|-------------------------|-----------------------|
E|-------------------------|-----------------------| both (C and Dm) 6x

            
            
Suggest correction
Creating personal tab
Creating personal tab
You can edit any tab online and save it as your Personal.

You can edit, replace or remove any tab part or add personal notes – all changes will be seen only by you.

Personal tabs can be accessed anytime from any device, even offline.
Learn more »
Give kudos to tab author, rate the tab!
1 2 3 4 5
comments
print report bad tab
guest
You may want to rate the tab now too:
select rating
Wanna post a correction for this tab? Suggest correction