Oops, an error
Loading. Please wait.

Basul Si Cu Toba Mare Tab

3,200 views 1 this week
no commentswrite comment
1 2 3 4 5
x 3
add to favorites
launch autoscroll
font size
0
reset
how to read this tab
guitar tuner
Autoscroll
slow
fast
+/-
esc
set tempo
stop
Help us to improve Ultimate-Guitar.com Take our survey!
×
La orice piesa buna care vrea sa stea-n picioare
Emusai sa se-auda basul si cu toba mare
La orice discoteca de la sat, oras sau mare
Emusai sa se-auda basul si cu toba mare


riff 1                                                    
E||-----------------------|-----------------------|-------------|
B||-----------------------|-----------------------|-------------|
G||--9-------12-----9-12--|--11-------9-11-12--9--|--11---------|
D||-----------------------|-----------------------|-------------|
A||-----------------------|-----------------------|-------------|
E||-----------------------|-----------------------|-------------|


Ma duc sa caut un loc sa ma arunc in cap sa scap de trac
Sa-fi bine si sa sar in sus pe difuzoare
Cand se-aude tare basul si cu toba mare

riff 2:
-------------------|---------------------|---------------------||
-------------------|---------------------|---------------------||
--9----------------|---------------------|---------------------||
--9s----10----9----|--4----5---4----9----|-----------9----L----||
--7s----10----7----|--4----5s--4----7----|----10-----9----L----||
---------8---------|--2----3s--2---------|-----8-----7----L----||

basul si cu toba mare
basul si cu toba mare
basul si cu toba mare


Sunt multe fete bune care au si parul mare
Sunt si mai multe fete care-l poarta pe picioare
Dar cele mai multe fete si-l pastreza-ntre picioare
Il flutura si-l usuca basul si cu toba mare

Si sare munti de sare in aer
Si moare orice nas oricat ar fi de tare
Umezela de canal, mirosul fatal
Imi intra-n creier si devin un animal

Mai dau volum la bas imi da sangele pe nas
Si astept adrenalina sa ma bage in extaz
Creierul cedeaza, muschii se-ncordeaza
Inima pompeaza tare, basul si cu toba mare


riff 2

riff 1 
Suggest correction
Give kudos to tab author, rate the tab!
1 2 3 4 5
comments
print report bad tab
guest
You may want to rate the tab now too:
select rating
Wanna post a correction for this tab? Suggest correction