Oops, an error
Loading. Please wait.

Crash Course tab

106 views 1 this week
no commentswrite comment
1 2 3 4 5
2 more votes to show rating
add to favorites
×
Save as Personal and add changes to this tab that will be seen only by you. Learn more ›
×
You can save this tab as Personal to edit and correct it or add notes. All changes will be seen only by you. Learn more »
launch autoscroll
font size
0
reset
how to read this tab
guitar tuner
edit
Autoscroll
slow
fast
+/-
esc
set tempo
stop
About this tab version
Complete Crash Course tab with Henderson's solo (the end of the solo was so chaotic that it was impossible to tab, so it may not perfectly stick to the original song). Was this info helpful? Yes No
Title: Crash Course
Artist: Vital Tech Tones
Album: Vital Tech Tones
Tabber: BurritoJohn
Tempo = 140
Scott Henderson



[Intro]
                                            
d#|----------------------------------------|
A#|----------------------------------------|
F#|-----------------------5s---------------|
C#|----------------------------------------|
G#|--------5s-7--7-----3--3s---------------|
D#|--------3s-5--5--0----------------------|

                                                                        
d#|----------------------------------------|-------------------------------|
A#|----------------------------------------|-------------------------------|
F#|--8-------------------------------------|-------------------------------|
C#|-----------7s-4~------------------------|-----x--5--7--7--5s------------|
G#|--6-------------------------------------|--------3--5--5----------------|
D#|-----0--5--5g-2~------------------------|-----x-------------------------|

                                                  
d#|-------------------------------------------------|
A#|--9--------9--------9----------------------------|
F#|--8--------7--------6----------------------------|
C#|--8--------7--------6----------------------------|
G#|--8--------7--------6----------------------------|
D#|-------------------------------------------------|

                                         
d#|----------------------------------------|
A#|----------------------------------------|
F#|-----------------------5s---------------|
C#|----------------------------------------|
G#|-----------7--7-----3--3g---------------|
D#|-----3--3--5--5--0----------------------|

                                                                         
d#|----------------------------------------|-------------------------------|
A#|----------------------------------------|-------------------------------|
F#|--8-------------------------------------|-------------------------------|
C#|-----------7--4~------------------------|--------5--7--7--7s------------|
G#|--6-------------------------------------|--------3--5--5----------------|
D#|-----0--5-----2~------------------------|-----0-------------------------|

                                                  
d#|-------------------------------------------------|
A#|--12-------12-------12---------------------------|
F#|--11-------10-------9----------------------------|
C#|--11-------10-------9----------------------------|
G#|-------------------------------------------------|
D#|-------------------------------------------------|

                                         
d#|----------------------------------------|
A#|----------------------------------------|
F#|-----------------------5s---------------|
C#|----------------------------------------|
G#|--------5s-7--7-----3--3s---------------|
D#|-----0--3s-5--5--0----------------------|

                                                                         
d#|----------------------------------------|-------------------------------|
A#|----------------------------------------|-------------------------------|
F#|--8-------------------------------------|-------------------------------|
C#|-----------7s-4-------------------------|-----x--5--7--7----------------|
G#|--6-------------------------------------|--------3--5--5----------------|
D#|-----0--5--5g-2-------------------------|-----x-------------------------|

                                                  
d#|-------------------------------------------------|
A#|-------------------------------------------------|
F#|--13-------12-------11---------------------------|
C#|--13-------12-------11---------------------------|
G#|--11-------10-------9----------------------------|
D#|-------------------------------------------------|

                                         
d#|----------------------------------------|
A#|----------------------------------------|
F#|--------------------8--8s---------------|
C#|----------------------------------------|
G#|--------5s-7--7-----6--6s---------------|
D#|--------3s-5--5--0----------------------|

                                         
d#|----------------------------------------|
A#|----------------------------------------|
F#|--11------------------------------------|
C#|--------10-10-6-------------------------|
G#|--9-------------------------------------|
D#|--------8--8--4-------------------------|

                                         
d#|----------------------------------------|
A#|--------------------12~-----------------|
F#|--------------------11~-----------------|
C#|--------------------11~-----------------|
G#|--5--------4----------------------------|
D#|--3--------2----------------------------|

                                                             
d#|----------------------------------------|--8~---------------|
A#|--------12-------12---------------------|--8~---------------|
F#|--------10-------9----------------------|--10~--------------|
C#|--------10-------9----------------------|--10~--------------|
G#|----------------------------------------|-------------------|
D#|----------------------------------------|-------------------|

                                                                                
d#|--8~---------------|
A#|--8~---------------|
F#|--8~---------------|
C#|--6~---------------|
G#|-------------------|
D#|-------------------|

[Verse]
                                                             
d#|-8------------8--8--11------------------|-------------------|
A#|----------------------------------------|--9~---------------|
F#|----------------------------------------|--8~---------------|
C#|----------------------------------------|--8~---------------|
G#|----------------------------------------|-------------------|
D#|----------------------------------------|-------------------|

                                                             
d#|----------------------------------------|-------------------|
A#|--------------9-------------------------|--8----------------|
F#|-----------------8--10------------------|--7----------------|
C#|----------------------------------------|--7----------------|
G#|----------------------------------------|-------------------|
D#|----------------------------------------|-------------------|

                                         
d#|--------------------10------------------|
A#|--------------8--10---------------------|
F#|----------------------------------------|
C#|----------------------------------------|
G#|----------------------------------------|
D#|----------------------------------------|

                                                             
d#|----------------------------------------|
A#|--8s-6--6--------4----------------------|
F#|-----------------3----------------------|
C#|-----------------3----------------------|
G#|----------------------------------------|
D#|----------------------------------------|

                                         
d#|-----------4----------------------------|
A#|--4-------------------------------------|
F#|--3-------------------------------------|
C#|----------------------------------------|
G#|----------------------------------------|
D#|----------------------------------------|

                                         
d#|--5-------------------------------------|
A#|--5--------5----------------------------|
F#|--4-------------------------------------|
C#|----------------------------------------|
G#|----------------------------------------|
D#|----------------------------------------|

                                         
d#|-----6-----11---------------------------|
A#|--6--------11---------------------------|
F#|--5--------10---------------------------|
C#|----------------------------------------|
G#|----------------------------------------|
D#|----------------------------------------|
                               

                                         
d#|-14s-11----------11---------------------|
A#|-13s-10----10----10---------------------|
F#|-12s-9--9--9-----9----------------------|
C#|----------------------------------------|
G#|----------------------------------------|
D#|----------------------------------------|

                                                             
d#|--11----------11-------11---------------|
A#|--10-------10-------10------------------|
F#|--9--9-----------9----------------------|
C#|----------------------------------------|
G#|----------------------------------------|
D#|----------------------------------------|

                                                             
d#|--8-----------8--8--11------------------|
A#|----------------------------------------|
F#|----------------------------------------|
C#|----------------------------------------|
G#|----------------------------------------|
D#|----------------------------------------|

                                                             
d#|----------------------------------------|-------------------|
A#|--9-----------9-------------------------|--8----------------|
F#|--8--------------8--10------------------|--7----------------|
C#|--8-------------------------------------|--7----------------|
G#|----------------------------------------|-------------------|
D#|----------------------------------------|-------------------|

                                         
d#|--------------------10------------------|
A#|--------------8--10---------------------|
F#|----------------------------------------|
C#|----------------------------------------|
G#|----------------------------------------|
D#|----------------------------------------|

                                                             
d#|----------------------------------------|
A#|--8s-6--6--------4----------------------|
F#|-----------------3----------------------|
C#|-----------------3----------------------|
G#|----------------------------------------|
D#|----------------------------------------|

                                                                      
d#|-----------4----------------------------|-----4----------------------|
A#|--4-------------------------------------|--4-------------------------|
F#|--3-------------------------------------|--3-------------------------|
C#|----------------------------------------|----------------------------|
G#|----------------------------------------|----------------------------|
D#|----------------------------------------|----------------------------|

                                                                      
d#|-----------4----------------------------|-----4----------------------|
A#|--4-------------------------------------|--4-------------------------|
F#|--3-------------------------------------|--3-------------------------|
C#|----------------------------------------|----------------------------|
G#|----------------------------------------|----------------------------|
D#|----------------------------------------|----------------------------|

                                                                      
d#|----------------------------------------|-----9----------------------|
A#|-----------9----------------------------|--9-------------------------|
F#|--8-----------------8-------------------|----------------------------|
C#|--8-------------------------------------|----------------------------|
G#|----------------------------------------|----------------------------|
D#|----------------------------------------|----------------------------|

                                         
d#|----------------------------------------|
A#|----------------------------------------|
F#|----------------------------------------|
C#|--7s-6--------5--------4----------------|
G#|-----------7--------6-------------------|
D#|----------------------------------------|

                                         
d#|--------------------------------------|
A#|--------------------------------------|
F#|--------------------------------------|
C#|--------------------------------------|
G#|--6-----3-----5-----------------------|
D#|-----------5-----2--------------------|

[Chorus]

d#|----------------------------------------|
A#|----------------------------------------|
F#|-----------------------5s---------------|
C#|----------------------------------------|
G#|--------5s-7--7-----3--3s---------------|
D#|--------3s-5--5--0----------------------|

                                                                        
d#|----------------------------------------|-------------------------------|
A#|----------------------------------------|-------------------------------|
F#|--8-------------------------------------|-------------------------------|
C#|-----------7s-4~------------------------|-----x--5--7--7--5s------------|
G#|--6-------------------------------------|--------3--5--5----------------|
D#|-----0--5--5g-2~------------------------|-----x-------------------------|

                                                  
d#|-------------------------------------------------|
A#|--9--------9--------9----------------------------|
F#|--8--------7--------6----------------------------|
C#|--8--------7--------6----------------------------|
G#|--8--------7--------6----------------------------|
D#|-------------------------------------------------|

                                         
d#|----------------------------------------|
A#|----------------------------------------|
F#|-----------------------5s---------------|
C#|----------------------------------------|
G#|-----------7--7-----3--3g---------------|
D#|-----3--3--5--5--0----------------------|

                                                                         
d#|----------------------------------------|-------------------------------|
A#|----------------------------------------|-------------------------------|
F#|--8-------------------------------------|-------------------------------|
C#|-----------7--4~------------------------|--------5--7--7--7s------------|
G#|--6-------------------------------------|--------3--5--5----------------|
D#|-----0--5-----2~------------------------|-----0-------------------------|

                                                  
d#|-------------------------------------------------|
A#|--12-------12-------12---------------------------|
F#|--11-------10-------9----------------------------|
C#|--11-------10-------9----------------------------|
G#|-------------------------------------------------|
D#|-------------------------------------------------|

                                         
d#|----------------------------------------|
A#|----------------------------------------|
F#|-----------------------5s---------------|
C#|----------------------------------------|
G#|--------5s-7--7-----3--3s---------------|
D#|-----0--3s-5--5--0----------------------|

                                     
d#|----------------------------------------|-------------------------------|
A#|----------------------------------------|-------------------------------|
F#|--8-------------------------------------|-------------------------------|
C#|-----------7s-4-------------------------|-----x--5--7--7----------------|
G#|--6-------------------------------------|--------3--5--5----------------|
D#|-----0--5--5g-2-------------------------|-----x-------------------------|

                                                  
d#|-------------------------------------------------|
A#|-------------------------------------------------|
F#|--13-------12-------11---------------------------|
C#|--13-------12-------11---------------------------|
G#|--11-------10-------9----------------------------|
D#|-------------------------------------------------|

                                         
d#|----------------------------------------|
A#|----------------------------------------|
F#|--------------------8--8s---------------|
C#|----------------------------------------|
G#|--------5s-7--7-----6--6s---------------|
D#|--------3s-5--5--0----------------------|

                                         
d#|----------------------------------------|
A#|----------------------------------------|
F#|--11------------------------------------|
C#|--------10-10-6-------------------------|
G#|--9-------------------------------------|
D#|--------8--8--4-------------------------|

                                         
d#|----------------------------------------|
A#|--------------------12~-----------------|
F#|--------------------11~-----------------|
C#|--------------------11~-----------------|
G#|--5--------4----------------------------|
D#|--3--------2----------------------------|

                                                             
d#|----------------------------------------|--8~---------------|
A#|--------12-------12---------------------|--8~---------------|
F#|--------10-------9----------------------|--10~--------------|
C#|--------10-------9----------------------|--10~--------------|
G#|----------------------------------------|-------------------|
D#|----------------------------------------|-------------------|

                                                                                
d#|--8~---------------|
A#|--8~---------------|
F#|--8~---------------|
C#|--6~---------------|
G#|-------------------|
D#|-------------------|

[Solo]
                                         
d#|--------------12-------15h--------------|
A#|----------------------------------------|
F#|-----------14---------------------------|
C#|----------------------------------------|
G#|----------------------------------------|
D#|----------------------------------------|

                                                                 
d#|--12-------------------------------12-------15------------------|
A#|--------------------------15------------------------------------|
F#|--------------------14------------------------------------------|
C#|----------------------------------------------------------------|
G#|----------------------------------------------------------------|
D#|----------------------------------------------------------------|

                                         
d#|--11----------11h16---------------------|
A#|----------------------------------------|
F#|-----------13---------------------------|
C#|----------------------------------------|
G#|----------------------------------------|
D#|----------------------------------------|

                                         
d#|--16~11---------------------------------|
A#|----------------------------------------|
F#|----------------------------------------|
C#|----------------------------------------|
G#|----------------------------------------|
D#|----------------------------------------|

                                                                                
d#|-15-------12-------------|
A#|-------------------------|
F#|-------------------------|
C#|-------------------------|
G#|-------------------------|
D#|-------------------------|

                                                                                
d#|-15h---------16h---------15----------12------------------------------|
A#|---------------------------------------------------------------------|
F#|---------------------------------------------------------------------|
C#|---------------------------------------------------------------------|
G#|---------------------------------------------------------------------|
D#|---------------------------------------------------------------------|

                                                                                
d#|--12----------10------------------------------------------------------|
A#|--------------------13----12----10----13-------12-------11------------|
F#|-----------------------------------------------------------------8----|
C#|----------------------------------------------------------------------|
G#|----------------------------------------------------------------------|
D#|----------------------------------------------------------------------|

                                                                          
d#|-----------------------------------------------------------|
A#|--11----11--11----------11----11----11---------------------|
F#|------------------8----------------------------------------|
C#|-----------------------------------------------------------|
G#|-----------------------------------------------------------|
D#|-----------------------------------------------------------|

                                                                                
d#|-----------8h----------------9h-8h-6h-------|
A#|--9-----------------------------------------|
F#|--------------------------------------------|
C#|--------------------------------------------|
G#|--------------------------------------------|
D#|--------------------------------------------|

                                                                          
d#|--8-----------------------6-------------------------------------|
A#|--------------------------------------9h-8h-7h-6h---------------|
F#|----------------------------------------------------------------|
C#|----------------------------------------------------------------|
G#|----------------------------------------------------------------|
D#|----------------------------------------------------------------|

                                         
d#|----------------------------------------|
A#|--5-----5-----------6-------------------|
F#|----------------------------------------|
C#|-----7-----------------8----------------|
G#|----------------------------------------|
D#|----------------------------------------|

                                                     
d#|--------6-----6-----------------6-------------------|
A#|--6-----------------6-----6-------------------------|
F#|-----------8-----------------------8----------------|
C#|-----------------------8----------------------------|
G#|----------------------------------------------------|
D#|----------------------------------------------------|

                                                     
d#|--6-----------------6-----6-----8-------------------|
A#|--------6-----6-------------------------------------|
F#|-----------------------8-----------10---------------|
C#|-----------8----------------------------------------|
G#|----------------------------------------------------|
D#|----------------------------------------------------|

                                                                                
d#|--8--------------9--------------9-----------------------11h--|
A#|-------------------------------------------------------------|
F#|--------------------11---------------------------------------|
C#|-------------------------------------------------------------|
G#|-------------------------------------------------------------|
D#|-------------------------------------------------------------|

                                                                                
d#|---12h-11h-12h-11h-12h-11h-12h---|
A#|---------------------------------|
F#|---------------------------------|
C#|---------------------------------|
G#|---------------------------------|
D#|---------------------------------|

                                                              
d#|---------17h--------------|
A#|---17---------------------|
F#|--------------------------|
C#|--------------------------|
G#|--------------------------|
D#|--------------------------|

                                         
d#|--15---------------------------|
A#|-----------17-13----15---------|
F#|-------------------------------|
C#|-------------------------------|
G#|-------------------------------|
D#|-------------------------------|

                                                                 
d#|-----------------------------|
A#|--16----16-------------------|
F#|--------15h17----------------|
C#|-----------------------------|
G#|-----------------------------|
D#|-----------------------------|

                                                                                
d#|--------------------------------------------|
A#|--13----------------------------------------|
F#|--12h------13-------------------------12s---|
C#|--------------------------------------------|
G#|--------------------------------------------|
D#|--------------------------------------------|

                                                                                
d#|----------------------------------------------|
A#|----------------------------------------------|
F#|------10--------------------------------------|
C#|------------------13h---------12h---------11--|
G#|----------------------------------------------|
D#|----------------------------------------------|

                                                                  
d#|----------------------------------------|
A#|----------------------------------------|
F#|--11~---12h9--10------------------------|
C#|--------------------12------------------|
G#|----------------------------------------|
D#|----------------------------------------|

                                                     
d#|----------------------------------------------------|
A#|----------------------------------------------------|
F#|--10h9-----------------------8----------------------|
C#|--------12-10-9s-8--------------10------------------|
G#|-----------------------------------10h--------------|
D#|----------------------------------------------------|

                                                                                
d#|-------------------------------------------------------------------------|
A#|-------------------------------------------------------------------------|
F#|-------------------------------------------------------------------------|
C#|-------------------------------------------------------------------------|
G#|--8--------------------------10-------8h----10h---8h----10h---8h----10h--|
D#|--------------------11---------------------------------------------------|

                                                              
d#|----------------------------------------------------|
A#|----------------------------------------------------|
F#|----------------------------------------------------|
C#|----------------------------------------------------|
G#|--8h-10h8h-10h8h-10h8h-10h8-------------------------|
D#|----------------------------------------------------|

                                                                                
d#|----------------------------------------------------|
A#|----------------------------------------------------|
F#|----------------------------------------------------|
C#|------------------------------------------10h-11----|
G#|--10h-13-10------------10-----13--------------------|
D#|----------------------------------------------------|

                                                                                
d#|-----------------------------------------------------|
A#|------------------------------11----------------11---|
F#|------10----------13---------------------------------|
C#|-----------------------------------------------------|
G#|-----------------------------------------------------|
D#|-----------------------------------------------------|

                                                                             
d#|----------------------------------------|--------14------------------------|
A#|-----11-13-13----13-14------------------|-----14----14---------------------|
F#|--8-----------10------------------------|--11------------------------------|
C#|----------------------------------------|----------------------------------|
G#|----------------------------------------|----------------------------------|
D#|----------------------------------------|----------------------------------|

                             
d#|--------14s17s--------------|
A#|-----14---------------------|
F#|--11------------------------|
C#|----------------------------|
G#|----------------------------|
D#|----------------------------|

                                                                 
d#|--14----------------------17h14---------------------------------|
A#|--------------------16----------16h14----------14---------------|
F#|--------------------------------------15h14h15------------------|
C#|----------------------------------------------------------------|
G#|----------------------------------------------------------------|
D#|----------------------------------------------------------------|

                                                                 
d#|-----------------------12-------12------------------------------|
A#|--------------12h15h12----12-------12s10s12-15s17---------------|
F#|--14s---12h14---------------------------------------------------|
C#|----------------------------------------------------------------|
G#|----------------------------------------------------------------|
D#|----------------------------------------------------------------|

                                                                 
d#|----------------------------------------------------------------|
A#|--17b---------------15h13----15h13-------13---------------------|
F#|--------------------------14-------14s12----12h-----------------|
C#|----------------------------------------------------------------|
G#|----------------------------------------------------------------|
D#|----------------------------------------------------------------|

                                                 w               
d#|----------------------------------------------------------------|
A#|--------------------------------------------10h13---------------|
F#|--12b---------------------10----------10h12---------------------|
C#|-----------------------------12h10h12---------------------------|
G#|----------------------------------------------------------------|
D#|----------------------------------------------------------------|

                                                                 
d#|--10----11----------11------------------------------------------|
A#|----------------------------------------------------------------|
F#|--------------13------------------------------------------------|
C#|----------------------------------------------------------------|
G#|----------------------------------------------------------------|
D#|----------------------------------------------------------------|

                                                             w   
d#|--------------13------------------------------------------------|
A#|--------------------16-13---------------------------------------|
F#|--------------------------15----13----12----10h8----------------|
C#|----------------------------------------------------------------|
G#|----------------------------------------------------------------|
D#|----------------------------------------------------------------|

                                                     
d#|----------------------------------------------------|
A#|--------------8h-9h-8s----5-------------------------|
F#|--10----8-----------------------7-------------------|
C#|----------------------------------------------------|
G#|----------------------------------------------------|
D#|----------------------------------------------------|

                                                     
d#|----------------------------------------------------|
A#|--6h-5----------------------------------------------|
F#|--------7--------7h-5-------------------------------|
C#|--------------7-----------7-----5s-4s---------------|
G#|----------------------------------------------------|
D#|----------------------------------------------------|

                                         
d#|----------------------------------------|
A#|----------------------------------------|
F#|--------3-------------------------------|
C#|--3-------------------------------------|
G#|-----------6----------------------------|
D#|----------------------------------------|

                                                     
d#|----------------------------------------------------|
A#|----------------------------------------------------|
F#|--------------------------------8--10---------------|
C#|-----------------8--11-8--10-11---------------------|
G#|-----------8--11------------------------------------|
D#|-----8h-9-------------------------------------------|

                                                                                
d#|-------------------------------------------------------------------|
A#|--9-----------11s-13----------------------------------11---13------|
F#|------------------------------------------10--------------------10-|
C#|-------------------------------------------------------------------|
G#|-------------------------------------------------------------------|
D#|-------------------------------------------------------------------|             

                                          
d#|-----------------------------------------|
A#|---11-13----13---------------------------|
F#|------------13h14------------------------|
C#|-----------------------------------------|
G#|-----------------------------------------|
D#|-----------------------------------------|

                                                                                
d#|------------------------------------------------------------------------------|
A#|--------------------------------------13--------------------------------------|
F#|--12-------------------------12----------------------------------12s------13--|
C#|-----------15----13----15-----------------------------------------------------|
G#|------------------------------------------------------------------------------|
D#|------------------------------------------------------------------------------|

                                                                                
d#|------------------------------14----------------------------------|
A#|---14----------------14----------------------------------14h------|
F#|------------13----------------------------------13----------------|
C#|------------------------------------------------------------------|
G#|------------------------------------------------------------------|
D#|------------------------------------------------------------------|

                                                                  
d#|-----------------------------------------------13h--------------|
A#|--18-------14h19-------14h18-------14h19----13------------------|
F#|--------13----------13----------13------------------------------|
C#|----------------------------------------------------------------|
G#|----------------------------------------------------------------|
D#|----------------------------------------------------------------|

      w
d#|--15-------13h17-------13h15-------13h17-------13h--------------|
A#|--------13----------13----------13----------13------------------|
F#|----------------------------------------------------------------|
C#|----------------------------------------------------------------|
G#|----------------------------------------------------------------|
D#|----------------------------------------------------------------|


d#|--15----13h17----13h15----13h17----13h15----13h17---------------|
A#|-----13-------13-------13-------13-------13---------------------|
F#|----------------------------------------------------------------|
C#|----------------------------------------------------------------|
G#|----------------------------------------------------------------|
D#|----------------------------------------------------------------|


d#|--20s---------15-20h15-------20h15-------20h15-20h--------------|
A#|-----------------------15h17-------15h17------------------------|
F#|----------------------------------------------------------------|
C#|----------------------------------------------------------------|
G#|----------------------------------------------------------------|
D#|----------------------------------------------------------------|


d#|--15-------20h15-------20h15-20h15-------20h16------------------|
A#|-----15h17-------15h17-------------15h18-------16h--------------|
F#|----------------------------------------------------------------|
C#|----------------------------------------------------------------|
G#|----------------------------------------------------------------|
D#|----------------------------------------------------------------|


d#|-----20h16-20h16-------16-18h16-20h16-18h20-15-13---------------|
A#|--18-------------16h18------------------------------------------|
F#|----------------------------------------------------------------|
C#|----------------------------------------------------------------|
G#|----------------------------------------------------------------|
D#|----------------------------------------------------------------|


d#|----------------------------------------------------------------|
A#|--14h11-13h12h11s10s9--11-13h16h13h16h13-16---------------------|
F#|----------------------------------------------------------------|
C#|----------------------------------------------------------------|
G#|----------------------------------------------------------------|
D#|----------------------------------------------------------------|


d#|-------------------------------------------------------------------------------|
A#|--16h---15----12----------15----12-------------------12h15h---12---------------|
F#|--------------------13----------------15----12h13-------------------15----12h--|
C#|-------------------------------------------------------------------------------|
G#|-------------------------------------------------------------------------------|
D#|-------------------------------------------------------------------------------|


d#|---------------------------------|
A#|-------15h---12------------------|
F#|-15------------------------------|
C#|---------------------------------|
G#|---------------------------------|
D#|---------------------------------|


d#|----------------------------------------------------------------|
A#|-----------12-15h12-17h15-------17h15----------17---------------|
F#|--15-12h13----------------16h17-------16-17h16------------------|
C#|----------------------------------------------------------------|
G#|----------------------------------------------------------------|
D#|----------------------------------------------------------------|


d#|--15b13s11-13---------------------|----------------------------------|
A#|--------------13------------------|----------------------------------|
F#|-----------------12s--------------|--10------------------------------|
C#|----------------------------------|-----10-8-------------------------|
G#|----------------------------------|-----------11-8s-7s---------------|
D#|----------------------------------|----------------------------------|


d#|----------------------------------------------------|
A#|----------------------------------------------------|
F#|----------------------------------------------------|
C#|--------8-------------------------------------------|
G#|--6--------------------------------------12h10h-----|
D#|----------------------------------------------------|


d#|----------------------------------------------------|
A#|--------------------------10----------10-13s14s-----|
F#|-----------------9h-12-9-----12-9h-10---------------|
C#|-----10h12h10h12------------------------------------|
G#|--12------------------------------------------------|
D#|----------------------------------------------------|


d#|-----------6----------------------------------------|
A#|--9--9s-6-----9h-7h-9h-7s-6-------------------------|
F#|-----------------------------8h-6-----8h-6----------|
C#|-----------------------------------8--------8h-6h---|
G#|----------------------------------------------------|
D#|----------------------------------------------------|


d#|--------------------------6-----------6--9s-11h-----|
A#|-----------------6h-9h-6-----9--6h-7----------------|
F#|-----6h-8h-6h-8-------------------------------------|
C#|--8-------------------------------------------------|
G#|----------------------------------------------------|
D#|----------------------------------------------------|


d#|--8-----8-----------11h8----------------------------|
A#|-----11----11-8h-10-------8h-10-------10h8----------|
F#|--------------------------------9h-10-------10-8h---|
C#|----------------------------------------------------|
G#|----------------------------------------------------|
D#|----------------------------------------------------|


d#|--------------------------------------8s-12-15------|
A#|-----8--------------8h-10h8--------10---------------|
F#|--9-----8-----8h-9-----------9h-10------------------|
C#|-----------10---------------------------------------|
G#|----------------------------------------------------|
D#|----------------------------------------------------|


d#|---------12h15----------------12h15---------|
A#|------12-------------------12---------------|
F#|--------------------------------------------|
C#|--------------------------------------------|
G#|--------------------------------------------|
D#|--------------------------------------------|


d#|-----12h15----12h15----12h15----12h15----12h15------|
A#|--12-------12-------12-------12-------12-------11---|
F#|----------------------------------------------------|
C#|----------------------------------------------------|
G#|----------------------------------------------------|
D#|----------------------------------------------------|


d#|--11h15----11h15----11h15----11h15----11h15----11h--|
A#|--------11-------11-------11-------11-------11------|
F#|----------------------------------------------------|
C#|----------------------------------------------------|
G#|----------------------------------------------------|
D#|----------------------------------------------------|


d#|--15----11h15----11h15----11h15----11h15----11h15---|
A#|-----11-------11-------11-------11-------11---------|
F#|----------------------------------------------------|
C#|----------------------------------------------------|
G#|----------------------------------------------------|
D#|----------------------------------------------------|


d#|-----12h15s16s15----------------12h15-15------------|
A#|--12-------------------------12---------------------|
F#|----------------------------------------------------|
C#|----------------------------------------------------|
G#|----------------------------------------------------|
D#|----------------------------------------------------|


d#|--------12h15----------------12h15s16s15------------|
A#|-----12-------------------12------------------------|
F#|----------------------------------------------------|
C#|----------------------------------------------------|
G#|----------------------------------------------------|
D#|----------------------------------------------------|


d#|-----13-16s---18-------------13-16s18s16------------|
A#|--13----------------------13------------------------|
F#|----------------------------------------------------|
C#|----------------------------------------------------|
G#|----------------------------------------------------|
D#|----------------------------------------------------|


d#|-----13----16----16----------16s---18----15---------|
A#|--13----------------13------------------------------|
F#|----------------------------------------------------|
C#|----------------------------------------------------|
G#|----------------------------------------------------|
D#|----------------------------------------------------|


d#|----------13-16s18s20b-----------------------|
A#|-------13------------------------------------|
F#|---------------------------------------------|
C#|---------------------------------------------|
G#|---------------------------------------------|
D#|---------------------------------------------|


d#|--18-16----------17~--------------------------------|--21b--|
A#|--------20----20----------------------16------------|-------|
F#|-----------17---------------------------------------|-------|
C#|----------------------------------------------------|-------|
G#|----------------------------------------------------|-------|
D#|----------------------------------------------------|-------|


d#|--21-------19-------18------------------|
A#|-----------------------21-18-19-18------|
F#|-----------------------------------20---|
C#|----------------------------------------|
G#|----------------------------------------|
D#|----------------------------------------|


d#|----------------------------------------------------|
A#|-----18-------------14-------17h14----------17h14---|
F#|--18----18s14h15h14----14h15-------17-14h15---------|
C#|----------------------------------------------------|
G#|----------------------------------------------------|
D#|----------------------------------------------------|


d#|--------------------------10s13-15b-----------------|
A#|--------10-13s15s13-10-13---------------------------|
F#|--14s10---------------------------------------------|
C#|----------------------------------------------------|
G#|----------------------------------------------------|
D#|----------------------------------------------------|


d#|--13------------------------------------------------|--8----|
A#|--------15-------13-------------10h12-13------------|--8----|
F#|--------------14----14s12-10h12---------------------|--10---|
C#|-----------------------------------------10---------|--10---|
G#|----------------------------------------------------|-------|
D#|----------------------------------------------------|-------|

[Second Verse]

d#|--------------8--8--11------------------|
A#|----------------------------------------|
F#|----------------------------------------|
C#|----------------------------------------|
G#|----------------------------------------|
D#|----------------------------------------|

                                                             
d#|----------------------------------------|-------------------|
A#|--9-----------9-------------------------|--8----------------|
F#|--8--------------8--10------------------|--7----------------|
C#|--8-------------------------------------|--7----------------|
G#|----------------------------------------|-------------------|
D#|----------------------------------------|-------------------|

                                         
d#|--------------------10------------------|
A#|--------------8--10---------------------|
F#|----------------------------------------|
C#|----------------------------------------|
G#|----------------------------------------|
D#|----------------------------------------|

                                                             
d#|----------------------------------------|
A#|--8s-6--6--------4----------------------|
F#|-----------------3----------------------|
C#|-----------------3----------------------|
G#|----------------------------------------|
D#|----------------------------------------|

                                                                      
d#|-----------4----------------------------|-----4----------------------|
A#|--4-------------------------------------|--4-------------------------|
F#|--3-------------------------------------|--3-------------------------|
C#|----------------------------------------|----------------------------|
G#|----------------------------------------|----------------------------|
D#|----------------------------------------|----------------------------|

                                                                      
d#|-----------4----------------------------|-----4----------------------|
A#|--4-------------------------------------|--4-------------------------|
F#|--3-------------------------------------|--3-------------------------|
C#|----------------------------------------|----------------------------|
G#|----------------------------------------|----------------------------|
D#|----------------------------------------|----------------------------|

                                                                      
d#|----------------------------------------|-----9----------------------|
A#|-----------9----------------------------|--9-------------------------|
F#|--8-----------------8-------------------|----------------------------|
C#|--8-------------------------------------|----------------------------|
G#|----------------------------------------|----------------------------|
D#|----------------------------------------|----------------------------|

                                         
d#|----------------------------------------|
A#|----------------------------------------|
F#|----------------------------------------|
C#|--7s-6--------5--------4----------------|
G#|-----------7--------6-------------------|
D#|----------------------------------------|

                                         
d#|--------------------------------------|
A#|--------------------------------------|
F#|--------------------------------------|
C#|--------------------------------------|
G#|--6-----3-----5-----------------------|
D#|-----------5-----2--------------------|

[Outro]

                                          
d#|----------------------------------------|
A#|----------------------------------------|
F#|-----------------------5s---------------|
C#|----------------------------------------|
G#|--------5s-7--7-----3--3s---------------|
D#|--------3s-5--5--0----------------------|

                                                                        
d#|----------------------------------------|-------------------------------|
A#|----------------------------------------|-------------------------------|
F#|--8-------------------------------------|-------------------------------|
C#|-----------7s-4~------------------------|-----x--5--7--7--5s------------|
G#|--6-------------------------------------|--------3--5--5----------------|
D#|-----0--5--5g-2~------------------------|-----x-------------------------|

                                                  
d#|-------------------------------------------------|
A#|--9--------9--------9----------------------------|
F#|--8--------7--------6----------------------------|
C#|--8--------7--------6----------------------------|
G#|--8--------7--------6----------------------------|
D#|-------------------------------------------------|

                                         
d#|----------------------------------------|
A#|----------------------------------------|
F#|-----------------------5s---------------|
C#|----------------------------------------|
G#|-----------7--7-----3--3g---------------|
D#|-----3--3--5--5--0----------------------|

                                                                         
d#|----------------------------------------|-------------------------------|
A#|----------------------------------------|-------------------------------|
F#|--8-------------------------------------|-------------------------------|
C#|-----------7--4~------------------------|--------5--7--7--7s------------|
G#|--6-------------------------------------|--------3--5--5----------------|
D#|-----0--5-----2~------------------------|-----0-------------------------|

                                                  
d#|-------------------------------------------------|
A#|--12-------12-------12---------------------------|
F#|--11-------10-------9----------------------------|
C#|--11-------10-------9----------------------------|
G#|-------------------------------------------------|
D#|-------------------------------------------------|

                                         
d#|----------------------------------------|
A#|----------------------------------------|
F#|-----------------------5s---------------|
C#|----------------------------------------|
G#|--------5s-7--7-----3--3s---------------|
D#|-----0--3s-5--5--0----------------------|

                                                                         
d#|----------------------------------------|-------------------------------|
A#|----------------------------------------|-------------------------------|
F#|--8-------------------------------------|-------------------------------|
C#|-----------7s-4-------------------------|-----x--5--7--7----------------|
G#|--6-------------------------------------|--------3--5--5----------------|
D#|-----0--5--5g-2-------------------------|-----x-------------------------|

                                                  
d#|-------------------------------------------------|
A#|-------------------------------------------------|
F#|--13-------12-------11---------------------------|
C#|--13-------12-------11---------------------------|
G#|--11-------10-------9----------------------------|
D#|-------------------------------------------------|

                                         
d#|----------------------------------------|
A#|----------------------------------------|
F#|--------------------8--8s---------------|
C#|----------------------------------------|
G#|--------5s-7--7-----6--6s---------------|
D#|--------3s-5--5--0----------------------|

                                         
d#|----------------------------------------|
A#|----------------------------------------|
F#|--11------------------------------------|
C#|--------10-10-6-------------------------|
G#|--9-------------------------------------|
D#|--------8--8--4-------------------------|

                                         
d#|----------------------------------------|
A#|--------------------12~-----------------|
F#|--------------------11~-----------------|
C#|--------------------11~-----------------|
G#|--5--------4----------------------------|
D#|--3--------2----------------------------|

                                                             
d#|----------------------------------------|--8~---------------|
A#|--------12-------12---------------------|--8~---------------|
F#|--------10-------9----------------------|--10~--------------|
C#|--------10-------9----------------------|--10~--------------|
G#|----------------------------------------|-------------------|
D#|----------------------------------------|-------------------|
 
 
************************************

x - dead note
h - hammer on/pull off
b - bend
s - slide
~ - vibrato
w - whammy bar

************************************

            
            
Suggest correction
Creating personal tab
Creating personal tab
You can edit any tab online and save it as your Personal.

You can edit, replace or remove any tab part or add personal notes – all changes will be seen only by you.

Personal tabs can be accessed anytime from any device, even offline.
Learn more »
Give kudos to tab author, rate the tab!
1 2 3 4 5
comments
print report bad tab
guest
You may want to rate the tab now too:
select rating
Wanna post a correction for this tab? Suggest correction