Oops, an error
Loading. Please wait.

Czardas tab

version 1
version 1

Whole song

Interactive

181 views 18 this week
no commentswrite comment
1 2 3 4 5
3 more votes to show rating
add to favorites
×
Save as Personal and add changes to this tab that will be seen only by you. Learn more ›
×
You can save this tab as Personal to edit and correct it or add notes. All changes will be seen only by you. Learn more »
launch autoscroll
font size
0
reset
how to read this tab
guitar tuner
edit
Autoscroll
slow
fast
+/-
esc
set tempo
stop
Csárdás by Vittorio Monti

Arranged for solo guitar

E standard tuning

************************************

| s    Slide
| h    Hammer-on
| p    Pull-off
| x    Dead note
| <>   Pinch harmonic
| ~~   Let ring
| v    vibrato

************************************


INTRO
     
E|---1~--1~--X--------|-----------------------------------------|---------------------X---|
B|---3~--3~--14~------|-----------------------------------------|---------------------14~-|
G|---2~--3~--X--------|----------------------------15v----------|---------------10~---X---|
D|---0~--0~--11~------|-----------------------11-14-------11~---|-----12~-----12------11~-|
A|-----------12~------|------12~---13-12-11-12------------12~---|---12------12--------12~-|
E|--------------------|-----------------------------------------|-13----------------------|

PART 1

E|----------------------|--------------------------|-------------------|-------------------------------------|
B|----------------------|--------------------------|-------------------|-------------------------------------|
G|-----------------14v--|----------------------15v-|---------------12v-|-12-12-10~-----------------------10v-|
D|----------------------|-15-15-17-15h17p15s14-----|----------11-14----|-----------11-14-12~--12-11-12-14----|
A|---12~--15-13-12------|--------------------------|-13-13-12----------|-------------------------------------|
E|----------------------|--------------------------|-------------------|-------------------------------------|

E|----------------------|--------------------------|-------------------|-------------------------------------|
B|----------------------|--------------------------|-------------------|-------------------------------------|
G|-----------------14v--|----------------------15v-|---------------12v-|-------------------------------------|
D|--------11------------|-15-15-17-15h17p15s14-----|----------12-11----|-14-14-12~-12h14p12s11-12v-----------|
A|---12~-----13-12------|--------------------------|-13-13-12----------|-------------------------------------|
E|----------------------|--------------------------|-------------------|-------------------------------------|

PART 2

E|--------------12-15-13-12----------------------------------|
B|---------11-13-----------15-13~--11~-11~-10-10h11p10s9-10v-|
G|-----9-12--------------------------------------------------|
D|-10v~------------------------------------------------------|
A|-----------------------------------------------------------|
E|-----------------------------------------------------------|

E|----------------------16-------12----------------------13~-|
B|--------------14-17-14------------15-15h17p15-14-15-17-----|
G|---------12-14-------------14~-----------------------------|
D|----11-14--------------------------------------------------|
A|-12~-------------------------------------------------------|
E|-----------------------------------------------------------|

E|-13-13~------|-------------------------------------------|
B|---------15~-|--17-18-17-16-17-18-17-s20v-18-17-17-------|
G|-------------|------------------------------------14-14v-|
D|-------------|-------------------------------------------|
A|-------------|-------------------------------------------|
E|-------------|-------------------------------------------|

E|----------------------------------------------------------------5~-|
B|-------------13~-s11-11h13p11-s10-10h11p10-s8-8h10p8-s6-6h8p6-s5---|
G|-13-14-15-14-------------------------------------------------------|
D|-------------------------------------------------------------------|
A|-------------------------------------------------------------------|
E|-------------------------------------------------------------------|

E|---------------------|
B|---------------------|
G|-s9-9-7-7h9p7-6-<7>~-|
D|---------------------|
A|---------------------|
E|---------------------|

E|--------------12-15-13-12----------------------------------|
B|---------11-13-----------15-13~--11~-11~-10-10h11p10s9-10v-|
G|-----9-12--------------------------------------------------|
D|-10v~------------------------------------------------------|
A|-----------------------------------------------------------|
E|-----------------------------------------------------------|

E|----------------------16-------12----------------------13~-|
B|--------------14-17-14------------15-15h17p15-14-15-17-----|
G|---------12-14-------------14~-----------------------------|
D|----11-14--------------------------------------------------|
A|-12~-------------------------------------------------------|
E|-----------------------------------------------------------|

E|-13~---13~------|-------------------------------------------|
B|------------15~-|--17-18-17-16-17-18-17-s20v-18-17-17-------|
G|----------------|------------------------------------14-14v-|
D|----------------|-------------------------------------------|
A|----------------|-------------------------------------------|
E|----------------|-------------------------------------------|

E|----------------------------------------------------------------5~-|
B|-------------13~-s11-11h13p11-s10-10h11p10-s8-8h10p8-s6-6h8p6-s5---|
G|-13-14-15-14-------------------------------------------------------|
D|-------------------------------------------------------------------|
A|-------------------------------------------------------------------|
E|-------------------------------------------------------------------|

E|---------------------|
B|---------------------|
G|-s9-9-7-7h9p7-6-<7>~-|
D|---------------------|
A|---------------------|
E|---------------------|

-------------------------------------------------------------------------------------------------------------|

PART 3 (fast part)

E|---------------------------|-------------------------------------------------|
B|---15-11-10----------------|-------------------------------------------------|
G|--------------10-9-7-6-<7>-|-7-9-10-9-7-9-10-9-7-9-10-9-7-9-10-9--10-9-8-<9>-|
D|-12------------------------|-------------------------------------------------|
A|---------------------------|-------------------------------------------------|
E|---------------------------|-------------------------------------------------|

E|-------------------------------------------------|
B|-------------------------------------------------|
G|-12-14-15-14-12-14-15-14-12-14-15-14-12-14-15-14-|
D|-------------------------------------------------|
A|-------------------------------------------------|
E|-------------------------------------------------|

E|-------------------------------------------------|
B|-------------------------------------------------|
G|-10-12-14-12-10-12-14-12-10-12-14-12-10-12-14-12-|
D|-------------------------------------------------|
A|-------------------------------------------------|
E|-------------------------------------------------|

E|---------------------------------------------------------|
B|---------------------------------------------------------|
G|-------------------12-14-15-10-9-------9-9---------------|
D|----------12-14-15---------------12-11-----12-11-<12>~~~-|
A|-12-14-16------------------------------------------------|
E|---------------------------------------------------------|

E|---------------------------|-------------------------------------------------|
B|---15-11-10----------------|-------------------------------------------------|
G|--------------10-9-7-6-<7>-|-7-9-10-9-7-9-10-9-7-9-10-9-7-9-10-9--10-9-8-<9>-|
D|-12------------------------|-------------------------------------------------|
A|---------------------------|-------------------------------------------------|
E|---------------------------|-------------------------------------------------|

E|-------------------------------------------------|
B|-------------------------------------------------|
G|-12-14-15-14-12-14-15-14-12-14-15-14-12-14-15-14-|
D|-------------------------------------------------|
A|-------------------------------------------------|
E|-------------------------------------------------|

E|-------------------------------------------------|
B|-------------------------------------------------|
G|-10-12-14-12-10-12-14-12-10-12-14-12-10-12-14-12-|
D|-------------------------------------------------|
A|-------------------------------------------------|
E|-------------------------------------------------|

E|---------------------------------------------------------|
B|---------------------------------------------------------|
G|-------------------12-14-15-10-9-------9-9---------------|
D|----------12-14-15---------------12-11-----12-11-<12>~~~-|
A|-12-14-16------------------------------------------------|
E|---------------------------------------------------------|

-------------------------------------------------------------------------------------------------------------|

BREAK 1

E|-----------------------------------------|-----------------------------------------|
B|-----------------------------------------|-----------------------------------------|
G|-12~-------------------------------------|-12~-------------------------------------|
D|-----12~---12-14-12------------------14v-|-----12~---12-14-12-12-------------------| 
A|-------------------15-14--14-12-12-15----|-----------------------9-s12-10-10-9-10~-|
E|-----------------------------------------|-----------------------------------------|

-------------------------------------------------------------------------------------------------------------|

PART 4 (faster part)

E|---------------------------------------------------------------|-----|
B|-----------8-11-8--------------8-11-8-------------------8-s10v-|-----|
G|---------9--------9---------9---------9----------7-9-10--------|-----|
D|-10-9-10------------10-9-10-------------8-7-8-10---------------|-12~-|
A|---------------------------------------------------------------|-----|
E|---------------------------------------------------------------|-----|

E|----------------------------------------------------|-----|
B|-----------8---------------8---------------------6v-|-----|
G|-------6-9---9-6-------6-9---9-6---------6-7-9-7----|-----|
D|-7-6-7-----------7-6-7-----------7-6-7-9------------|-----|
A|----------------------------------------------------|-12~-|
E|----------------------------------------------------|-----|

E|-------------------------------------------------|-------------------------------------------------|
B|-13-12-10-12-13-12-10-12-13-12-10-12-13-12-10-12-|-------------10----------10----------10----------|
G|-------------------------------------------------|-10-12-10-12----12-10-12----12-10-12----12-10-12-|
D|-------------------------------------------------|-------------------------------------------------|
A|-------------------------------------------------|-------------------------------------------------|
E|-------------------------------------------------|-------------------------------------------------|

E|---------------------------------------------------------|
B|---------------------------------------------------------|
G|-------------------12-14-15-10-9-------9-9---------------|
D|----------12-14-15---------------12-11-----12-11-<12>~~~-|
A|-12-14-16------------------------------------------------|
E|---------------------------------------------------------|

E|---------------------------------------------------------------|-----|
B|-----------8-11-8--------------8-11-8-------------------8-s10v-|-----|
G|---------9--------9---------9---------9----------7-9-10--------|-----|
D|-10-9-10------------10-9-10-------------8-7-8-10---------------|-12~-|
A|---------------------------------------------------------------|-----|
E|---------------------------------------------------------------|-----|

E|----------------------------------------------------|-----|
B|-----------8---------------8---------------------6v-|-----|
G|-------6-9---9-6-------6-9---9-6---------6-7-9-7----|-----|
D|-7-6-7-----------7-6-7-----------7-6-7-9------------|-----|
A|----------------------------------------------------|-12~-|
E|----------------------------------------------------|-----|

E|-------------------------------------------------|-------------------------------------------------|
B|-13-12-10-12-13-12-10-12-13-12-10-12-13-12-10-12-|-------------10----------10----------10----------|
G|-------------------------------------------------|-10-12-10-12----12-10-12----12-10-12----12-10-12-|
D|-------------------------------------------------|-------------------------------------------------|
A|-------------------------------------------------|-------------------------------------------------|
E|-------------------------------------------------|-------------------------------------------------|

E|-----------------------------------------------|
B|-------------------------------------12-14-15v-|
G|-------------------12-14-15-14-12-14-----------|
D|----------12-14-15-----------------------------|
A|-12-14-16--------------------------------------|
E|-----------------------------------------------|

-------------------------------------------------------------------------------------------------------------|

PART 5 (happier fast part)

E|--------------------------------|--------------------------------------------------------------|
B|----15--------------------------|--------------------------------------------------------------|
G|-------16-16-14-----------------|--------------------------------------------------------------|
D|-12-------------16-14-12-11-12v-|-12-14-16-14-12-14-16-14-12-14-16-14-12-14-16-14-16-14-13-14v-|
A|--------------------------------|--------------------------------------------------------------|
E|--------------------------------|--------------------------------------------------------------|

E|-------------------------------------------------|
B|-------------------------------------------------|
G|-12-14-16-14-12-14-16-14-12-14-16-14-12-14-16-14-|
D|-------------------------------------------------|
A|-------------------------------------------------|
E|-------------------------------------------------|

E|------------------------------------------------|--------------------------------------------------|
B|------------------------------------------------|--------------------------------------------------|
G|-11-12-14-12-11-12-14-12-11-12-14-12-11-12-14-12|-9-11-13-11-9-11-13-11-9-11-13-11-9-11-13-11-s14v-|
D|------------------------------------------------|--------------------------------------------------|
A|------------------------------------------------|--------------------------------------------------|
E|------------------------------------------------|--------------------------------------------------|

-------------------------------------------------------------------------------------------------------------|

BREAK 2

E|----------------------------------------|-------------------------------------------|
B|----------------------------------------|-------------------------------------------|
G|----------------------------------------|-s4-----s9-9-------------------------------|
D|-s12---------------------------------5v-|-------------------------------------------|
A|-----12~-12-14-12-10-9-9-7---7-6-7-9----|----4-4------10-10v-s10-9-9h10p9-7-5-7-s9v-|
E|----------------------------------------|-------------------------------------------|

E|---------------------------------------------------|------------------------------------------|
B|---------------------------------------------------|------------------------------------------|
G|---------------------------------------------------|------------------------------------------|
D|-s12-----------------------------------------------|-s12--------------------------------------|
A|-----12-12~-12-14-12-10-9--9--7-7h9p7-7-6-7-9-s10v-|----12-12~-12-14-12-12-4-7-5-5h7p5-5-4-5v-|
E|---------------------------------------------------|------------------------------------------|

E|----------------------------------------|------------------------------------------|
B|----------------------------------------|------------------------------------------|
G|-s12------------------------------------|------------------------------------------|
D|-----12~-12-14-12----------------10-14v-|-14-12-12-12-s16-14-12-10-11--------------|
A|------------------15-14-14-12-12--------|-----------------------------14-14-13-14v-|
E|----------------------------------------|------------------------------------------|

-------------------------------------------------------------------------------------------------------------|

OUTRO

E|---------------------------|------------------------------------------------|
B|---15-11-10----------------|------------------------------------------------|
G|--------------11-9-7-6-<7>-|-7-9-11-9-7-9-11-9-7-9-11-9-7-9-11-9-11-9-8-<9>-|
D|-12------------------------|------------------------------------------------|
A|---------------------------|------------------------------------------------|
E|---------------------------|------------------------------------------------|

E|-------------------------------------------------|
B|-------------------------------------------------|
G|-12-14-16-14-12-14-16-14-12-14-16-14-12-16-14-12-|
D|-------------------------------------------------|
A|-------------------------------------------------|
E|-------------------------------------------------|

E|-------------------------------------------------|-------------------------------------------|----------||
B|-------------------------------------------------|-------------------------------------------|----------||
G|-11-12-14-12-11-12-14-12-11-12-14-12-11-14-12-11-|-------------------------------------------|----------||
D|-------------------------------------------------|----------------7-9-7-6-7-6-7-9-11-12v~~~~-|----------||
A|-------------------------------------------------|-7-6-7-9-10-9-10---------------------------|-s12~-12~-||
E|-------------------------------------------------|-------------------------------------------|------10~-||

            
            
Suggest correction
Creating personal tab
Creating personal tab
You can edit any tab online and save it as your Personal.

You can edit, replace or remove any tab part or add personal notes – all changes will be seen only by you.

Personal tabs can be accessed anytime from any device, even offline.
Learn more »
Give kudos to tab author, rate the tab!
1 2 3 4 5
comments
print report bad tab
guest
You may want to rate the tab now too:
select rating
Wanna post a correction for this tab? Suggest correction