Oops, an error
Loading. Please wait.

Closer Than Far Tab

192 views 1 this week
1 commentread comment
1 2 3 4 5
please rate
add to favorites
launch autoscroll
font size
0
reset
how to read this tab
guitar tuner
Tab Pro tools
  • play this tab
  • loop segment
  • change instrument
  • show fretboard
  • metronome
Autoscroll
slow
fast
+/-
esc
set tempo
stop
Contributor
Difficulty
Tuning
intermediate
D A D G B E
----------------------------------------------------------------------------
                             CLOSER THAN FAR - Viva Voce
----------------------------------------------------------------------------
Tabbed by: ccespino
Email: ccespino@iprimus.com.au

Tuning: Drop - D
Guitar I: electric (clean)
Guitar II: electric w/ distortion


Intro: (pt.1)

Gtr I |--
      |--
Gtr II|--

e|---------------------------------------------------------------------|
B|---------------------------------------------------------------------|
G|---------------------------------------------------------------------|
D|----------4-----------4-----------4-----4-5-5-5-4-4------------------|
A|----5-5-5-5-5-5-5-5-5-5-5-5-5-5-5-5-5-5-5-5-5-5-5-5------------------|
D|----0-0-0-0-0-0-0-0-0-0-0-0-5-5-5-5-5-5-5-5-5-5-5-5------------------| x2
 |
e|-------------------------------------------------------------------------|
B|-------------------------------------------------------------------------|
G|-------------------------------------------------------------------------|
D|-------------------------------------------------------------------------|
A|-------------------------------------------------------------------------|
D|-------------------------------------------------------------------------|

(pt.2)
e|---------------------------------------------------------------------|
B|---------------------------------------------------------------------|
G|---------------------------------------------------------------------|
D|----------------4-----------4-----------4-----4-5-5-5-4-4------------|
A|----------5-5-5-5-5-5-5-5-5-5-5-5-5-5-5-5-5-5-5-5-5-5-5-5------------|
D|----------0-0-0-0-0-0-0-0-0-0-0-0-5-5-5-5-5-5-5-5-5-5-5-5------------|
 |
e|--------|-------------------------------------------------------------|
B|--------|-------------------------------------------------------------|
G|-7(ring)\2(ring)----------2(ring)/5(ring)-----------------------------|
D|--------|-------------------------------------------------------------|
A|--------|-------------------------------------------------------------|
D|--------|-------------------------------------------------------------|
   ^
   |
runs from prev. bar


e|------------------------------------------------------------------------|
B|------------------------------------------------------------------------|
G|------------------------------------------------------------------------|
D|----------------4-----------4-----------4-----4-5-5-5-4-4---------------|
A|----------5-5-5-5-5-5-5-5-5-5-5-5-5-5-5-5-5-5-5-5-5-5-5-5---------------|
D|----------0-0-0-0-0-0-0-0-0-0-0-0-5-5-5-5-5-5-5-5-5-5-5-5---------------|
 |
e|--------|-----------------------------------------------------|--------|
B|--------|-----------------------------------------------------|--------|
G|-7(ring)\2(ring)----------2(ring)/5(ring)-------------5(ring)\|2(ring)-|
D|--------|-----------------------------------------------------|--------|
A|--------|-----------------------------------------------------|--------|
D|--------|-----------------------------------------------------|--------|
                                                           ^
                                                           |
                                                    rings thru next bar
Verse I (pt. 1)                                                ^
repeat whole intro without the last two Gtr.II notes (this one | yep right there)

then play Intro: (pt.1)

Verse I (pt. 2)
e|-----------------------------------------------------------------------|
B|-----------------------------------------------------------------------|
G|-----------------------------------------------------------------------|
D|----------4---------------------4-5------------------------------------|
A|--------5---------------------5----------------------------------------|
D|------0---------------------5------------------------------------------|
 |                                                                       }x2
e|-----------------------------------------------------------------------|
B|-----------------------------------------------------------------------|
G|-----------------------------------------------------------------------|
D|-----------------------------------------------------------------------|
A|-----------------------------------------------------------------------|
D|-----------------------------------------------------------------------|
                "Closer than far...

e|----------------------------------------------------------------------|
B|----------------------------------------------------------------------|
G|----------------------------------------------------------------------|
D|-------------4---------------------4-5--------------------------------|
A|-----------5---------------------5------------------------------------|
D|---------0---------------------5--------------------------------------|
 |                                                                       }x2
e|--------|-------------------------------------------------------------|
B|--------|-------------------------------------------------------------|
G|-7(ring)\2(ring)----------2(ring)/5(ring)-----------------------------|
D|--------|-------------------------------------------------------------|
A|--------|-------------------------------------------------------------|
D|--------|-------------------------------------------------------------|


e|-----------------------------------------------------------------------|
B|-----------------------------------------------------------------------|
G|-----------------------------------------------------------------------|
D|----------4---------------------4-5------------------------------------|
A|--------5---------------------5----------------------------------------|
D|------0---------------------5------------------------------------------|x2
 |
e|----------------------------------------------------------------------|
B|----------------------------------------------------------------------|
G|----------------------------------------------------------------------|
D|----------------------------------------------------------------------|
A|-0/5-(softly)---------------------------------------------------------|
D|------------------------------------------------------(1st time only)-|

Chorus
e|-----------------------------|----------------------------------------|
B|-----------------------------|----------------------------------------|
G|-----------------------------|---------7-7-7/9-9-9/11-11--------------|
D|-----------------------------|----------------------------------------|
A|-----------------------------|----------------------------------------|
D|-----------------------------|----------------------------------------|
 |                                                                       }x4
e|-----|-----------------------|----------------------------------------|
B|-----|-----------------------|----------------------------------------|
G|-----|-----------------------|----------------------------------------|
D|----7/9-9-9-9-9-9-5-5-5-5-5-5|-0-0-0-0-0-0-0-0-0-0-0-0----------------|
A|----7/9-9-9-9-9-9-5-5-5-5-5-5|-0-0-0-0-0-0-0-0-0-0-0-0----------------|
D|----7/9-9-9-9-9-9-5-5-5-5-5-5|-0-0-0-0-0-0-0-0-0-0-0-0----------------|
     ^                          ^
     |                          |
(1st time only)              (last time let first notes of bar ring instead)


there u go.
the rest of the song is just repeats of each sequence - it's easy to figure out. Any 
email to  eskrimador_759@hotmail.com  -yes it's a different email!


| /  slide up
| \  slide down
| h  hammer-on
| p  pull-off
| ~  vibrato
| +  harmonic
| x  Mute note
============================================================================
comments
We did not receive enough feedback on this tab! Please rate:
print report bad tab
1 2 3 4 5
1 comment total.
0 reply
ccespino wrote on June 27 2006, 07:16 am

sorry
one correction - the slide from 2 to 5 is actually from
2 to 4 in all the second guitar parts. (any others from second guitar is usually 4 instead of 5. if not, it's easily audible!)
anything else, email me.

I want to post or [tab]
guest
You may want to rate the tab now too:
select rating
Please do not post tabs as comments. Select "correction" instead!