Oops, an error
Loading. Please wait.

Lesson No1 Tab

878 views 1 this week
2 commentsread comments
1 2 3 4 5
2 more votes to show rating
add to favorites
launch autoscroll
font size
0
reset
how to read this tab
guitar tuner
Autoscroll
slow
fast
+/-
esc
set tempo
stop
Help us to improve Ultimate-Guitar.com Take our survey!
×
Author
Difficulty
ARTIST: Viva Voce ~ http://www.vivavoce.com
SONG: Lesson No.1
ALBUM: Heat Can Melt Your Brain
TUNING: Standard - EADGBe

Riff #1
e--------------------------------------------------------------------------|
B--------------------------------------------------------------------------|
G-----------6--------4------8--8--8--------6-------4-----8--8--8-----------|
D------5s7---7--5--5---5s9-9--9--9--9--7-7--7--5-5--5s9-9--9--9--9---------|
A--------------------------------------------------------------------------|
E--------------------------------------------------------------------------|

Riff #2
e---------------------------------------|
B---------------------------------------|
G---9s11s9--7s9s7--8b~------------------|
D---------------------------------------|
A---------------------------------------|
E---------------------------------------|

Riff #3
e---------------------------------------|
B---------------------------------------|
G---2---------------4-------------------|
D---2-------2-------4-------------------|
A---0-------2-------2-------------------|
E-----------0---------------------------|

You'll have to work out the strumming pattern for riff #3 ;)
That's it...
Suggest correction
Give kudos to tab author, rate the tab!
1 2 3 4 5
comments
print report bad tab
2 comments total.
0 reply
ccespino 31 Jun 27, 2006 07:27 AM

i actually i think its this.....listen closely
it plays chord progression of A, G then B, not A E B
e|-----------------------------------------
B|-----------------------------------------
G|-----------------------------------------
D|---7--7--5-5--9--9--9-9-9-9-9------------
A|---7--7--5-5--9--9--9-9-9-9-9------------
E|---5--5--3-3--7--7--7-7-7-7-7------------

still great otherwise!

0 reply
Daniel_Jones420 31 Jun 29, 2006 05:04 AM

Yeh, I actually realised this after listening to the song a little more, couldn't find any way to edit the tab tho. Thnx

guest
You may want to rate the tab now too:
select rating
Wanna post a correction for this tab? Suggest correction