Oops, an error
Loading. Please wait.

Hide And Seek Tab

85 views 9 this week
1 commentread comment
1 2 3 4 5
3 more votes to show rating
add to favorites
launch autoscroll
font size
0
reset
how to read this tab
guitar tuner
Autoscroll
slow
fast
+/-
esc
set tempo
stop
Help us to improve Ultimate-Guitar.com Take our survey!
×
Author
Difficulty
novice
About this tab version
Overall, there isn't any difference since there aren't any other versions of this song. I'm very new at guitar (this is my first tab by the way) but this is what I caught by ear. Link I used to listen to the song: https://www.youtube.com/watch?v=r2167AHhCGI Happy learning :). Was this info helpful? Yes No
Song: 
"숨바꼭질"
Romaja: Sumbakkokjil
English: Hide and Seek
Tabbed: SonDeku (bryanjosue08)


[Intro]

e|----------------------|-------------------|--------------------------------|
B|-9--------------------|--------------10-9-|-5-7-9-10-14-13--9--------------|
G|----------------------|-------------------|-------------------11-9---------|
D|---11--10-11-13-16-14-|-11--13-14-16------|--------------------------------|
A|----------------------|-------------------|--------------------------------|
E|----------------------|-------------------|--------------------------------|

e|----------------------|-------------------|--------------------------------|
B|-9--------------------|--------------10-9-|-5-7-9-10-14-13-13-14-16--------|
G|----------------------|-------------------|--------------------------------|
D|---11--10-11-13-16-14-|-11--13-14-16------|--------------------------------|
A|----------------------|-------------------|--------------------------------|
E|----------------------|-------------------|--------------------------------|


[Verse]

e|-12--11-9---11-9-9-|-12--11-9---16-14-12-11-9------------------------------|
B|----------9--------|----------9--------------------------------------------|
G|-------------------|-------------------------------------------------------|
D|-------------------|-------------------------------------------------------|
A|-------------------|-------------------------------------------------------|
E|-------------------|-------------------------------------------------------|

e|-12--11-9---11-9-9-|-12--11-9---16-14-16-17-16-----------------------------|
B|----------9--------|----------9--------------------------------------------|
G|-------------------|-------------------------------------------------------|
D|-------------------|-------------------------------------------------------|
A|-------------------|-------------------------------------------------------|
E|-------------------|-------------------------------------------------------|


[Chorus]

e|-----------------------|---------------------------------|-----------------|
B|-9---------------------|-----------9---------------------|-----------------|
G|-----------------------|---------------------------------|-----------------|
D|----11--10-11-13-14-11-|--------------11--10-11-13-14-11-|-----------------|
A|-12--------------------|-11-12-11--12--------------------|-11-12-11--------|
E|-----------------------|---------------------------------------------------|


[Ending]

e|------------------------|-------------------------------|------------------|
B|-9----------------------|-9-----------------------------|------------------|
G|------------------------|-------------------------------|------------------|
D|---11-10-11-13-14-11----|----11--10-11-13-14-11---------|------------------|
A|---------------------11-|-12-------------------11-12-11-|------------------|
E|------------------------|-------------------------------|------------------| 
                                                                             |(x4)
e|---------------------|-----------------------------------------------------|
B|-9-------------------|---------9-------------------------------------------|
G|---------------------|-----------------------------------------------------|
D|---11-10-11-13-14-11-|-----------11-10-11-13-14-11-------------------------|
A|---------------------|-11-12-11--------------------------------------------|
E|---------------------|-----------------------------------------------------|
Suggest correction
Give kudos to tab author, rate the tab!
1 2 3 4 5
comments
print report bad tab
1 comment total.
0 reply
bryanjosue08 45 Nov 09, 2016 11:10 PM

CLARIFYING:
In the Ending, what needs to be repeated four times would just be:

E|-------------------------------|
A|-9-----------------------------|
G|-------------------------------|
D|----11--10-11-13-14-11---------|
A|-12-------------------11-12-11-|
E|-------------------------------|
which is the second bar
not the first one:

E|------------------------|
A|-9----------------------|
G|------------------------|
D|---11-10-11-13-14-11----|
A|---------------------11-|
E|------------------------|

guest
You may want to rate the tab now too:
select rating
Wanna post a correction for this tab? Suggest correction