Oops, an error
Loading. Please wait.

I Wonder Chords

28 views 6 this week
no commentswrite comment
1 2 3 4 5
3 more votes to show rating
add to favorites
launch autoscroll
font size
0
reset
transpose
0
reset
display chords
guitar tuner
Autoscroll
slow
fast
+/-
esc
set tempo
stop
Help us to improve Ultimate-Guitar.com Take our survey!
×
Author
Difficulty
novice
About this tab version
Album version played on the acoustic. Was this info helpful? Yes No
[Intro]

e|-------------------|-3h0---------------|-------------------|-------------------|
B|------1---0h1------|-----1---3h1-------|---------3/5-------|---------3/5-------|
G|--------2-----2----|-------2-----2-----|-----0-------0-----|-----0-------0-----|
D|-------------------|---------------2---|---0---0-------0---|---2---2-------2---|
A|---0------------0--|-------------------|-------------------|-------------------|
E|-------------------|-------------------|-3-----------------|-0-----------------|

e|-------------------|-3h0---------------|-------------------|-------------------|
B|-----1---0/1-------|-----1---3h1-------|---------3/5-------|---------3/5-------|
G|-----2-2-----2-----|-------2-----2-----|-----0-------0-----|-----0-------0-----|
D|-----2-------------|---------------2---|---0---0-------0---|---2---2-------2---|
A|---0-----------0---|-------------------|-------------------|-------------------|
E|-------------------|-------------------|-3-----------------|-0-----------------|

[Verse]

Am                C              G    Em
    It's getting colder in this room
Am                  C             G    Em
    She said she's gonna be back soon
Am              C           G               Em          Am
    It's funny how things change and some things go to waste
    Am            C              G      Em
    and I'm just left with a sour taste

[Chorus]

F             G        C              C
    I wonder how longer can I keep waiting for her and
F            G          C                   C
    I wonder if she forgot that I'm still waiting for her
   F                       G          C          
    Things are getting closer to the edge

[Bridge]
Am Am C C G G Em Em

[Verse]

Am                C              G    Em
    It's getting colder in this room
Am                C                    G    Em
    She promised that she wouldn't be long
Am             C         G              Em
    Its funny how time flies and everything just
    Am         C                G     Em
    dies promises just end up lies

[Chorus]

F             G        C              C
    I wonder how longer can I keep waiting for her and
F            G          C                   C
    I wonder if she forgot that I'm still waiting for her
    F         G            C       C       Am
    Was this just another stupid dream of mine?
   F                     G            C
    Things are getting closer to the edge

[Outro]

Bm Bm C C G D Em
Bm Bm C C G D Em
Bm Bm C C G D Em
Suggest correction
Give kudos to tab author, rate the tab!
1 2 3 4 5
comments
print report bad tab
guest
You may want to rate the tab now too:
select rating
Wanna post a correction for this tab? Suggest correction