Oops, an error
Loading. Please wait.

Dieses Leben Bass Tab

149 views 1 this week
no commentswrite comment
1 2 3 4 5
3 more votes to show rating
add to favorites
launch autoscroll
font size
0
reset
guitar tuner
Autoscroll
slow
fast
+/-
esc
set tempo
stop
Help us to improve Ultimate-Guitar.com Take our survey!
×
Band:     Vogelfrei
Lied:     Dieses Leben
Tabed by: W.Lam
email:    Wigi_1990@web.de

Alle Strophen
G--------------------------------------------------------|
D--------------------------------------------------------|
A---------------3-3-3-5-5-5------------------------------|
E-3-3-3-3-0-0-0------------------------------------------|

Refrain
G------------------------------------------------------|
D------------------------------------------------------|
A-3-3-3-3-5-5-5-5---3-3-5-5---3-3-5-5---3-3-5-5-5------|
E-----------------0---------0---------0-----------3----|
Suggest correction
Give kudos to tab author, rate the tab!
1 2 3 4 5
comments
print report bad tab
guest
You may want to rate the tab now too:
select rating
Wanna post a correction for this tab? Suggest correction