Oops, an error
Loading. Please wait.

Autumn bass

by Vogues
91 views 1 this week
no commentswrite comment
1 2 3 4 5
3 more votes to show rating
add to favorites
×
Save as Personal and add changes to this tab that will be seen only by you. Learn more ›
×
You can save this tab as Personal to edit and correct it or add notes. All changes will be seen only by you. Learn more »
launch autoscroll
font size
0
reset
guitar tuner
edit
Autoscroll
slow
fast
+/-
esc
set tempo
stop
Author
Difficulty
Tabbed by: 6METAL6BASSIST6
E-mail: petergriffinav@gmail.com

Tuning: EADG

Re-tabbed.

G|3---3---3---3---3---3---3---3---3---3---3---3---1---------------|
D|----------------------------------------------------3---1-------|
A|------------------------------------------------------------4---|
E|----------------------------------------------------------------|

G|----------------------------------------------------------------|
D|----------------------------------------------------0---1---3---|
A|1---1---1---1---1---1---1---1---1---1---1---1---3---------------|
E|----------------------------------------------------------------|

0:09

G|----------------------------------------------------------------|
D|--------------------------------0-----------0---0---------------|
A|1-----------1---1-----------------------------------------------|
E|----------------------------------------------------------------|

G|----------------------------------------------------------------|
D|1-----------1---3-----------3-----------------------0---1---3---|
A|--------------------------------1-----------1---3---------------|
E|----------------------------------------------------------------|

G|----------------------------------------------------------------|
D|--------------------------------0-----------0---0-----------0---|
A|1-----------1---1-----------1-----------------------------------|
E|----------------------------------------------------------------|

G|----------------------------------------------------------------|
D|1-----------1---3-----------3-----------------------0---1---3---|
A|--------------------------------1-----------1---3---------------|
E|----------------------------------------------------------------|

0:25

G|----------------------------------------------------------------|
D|--------------------------------5-----------5---5-------3-------|
A|5-----------5---5-----------5-----------------------------------|
E|----------------------------------------------------------------|

G|--------------------------------|
D|1-----------1---1---------------|
A|----------------------------1---|
E|--------------------------------|

G|----------------------------------------------------------------|
D|1-----------1-----------1-------1-----------1-----------1-------|
A|----------------------------------------------------------------|
E|----------------------------------------------------------------|

0:35

G|----------------------------------------------------------------|
D|3-----------3---3---0-------3---1-----------1-----------0---1---|
A|------------------------1-----------------------1---3-----------|
E|----------------------------------------------------------------|

G|----------------------------------------------------------------|
D|3-----------3---3-----------3-----------------------0---1---3---|
A|--------------------------------1-----------1---3---------------|
E|----------------------------------------------------------------|

G|----------------------------------------------------------------|
D|----------------------------0---1-----------1---1-------0---1---|
A|1-----------1---1-----------------------------------------------|
E|----------------------------------------------------------------|

G|--------------------------------|
D|3-----------3---3---------------|
A|--------------------------------|
E|--------------------------------|

G|3---3---3---3---3---3---3---3---3---3---3---3---1---------------|
D|----------------------------------------------------3---1-------|
A|------------------------------------------------------------4---|
E|----------------------------------------------------------------|

G|----------------------------------------------------------------|
D|----------------------------------------------------0---1---3---|
A|1---1---1---1---1---1---1---1---1---1---1---1---3---------------|
E|----------------------------------------------------------------|

0:57

G|----------------------------------------------------------------|
D|----------------------------3---0-----------0---0-----------0---|
A|1-----------1---1-----------------------------------------------|
E|----------------------------------------------------------------|

G|----------------------------------------------------------------|
D|1-----------1---3-----------3-----------------------0---1---3---|
A|--------------------------------1-----------1---3---------------|
E|----------------------------------------------------------------|

G|----------------------------------------------------------------|
D|--------------------------------0-----------0---0-----------0---|
A|1-----------1---1-----------1-----------------------------------|
E|----------------------------------------------------------------|

G|----------------------------------------------------------------|
D|1-----------1---3-----------3-----------------------0---1---3---|
A|--------------------------------1-----------1---3---------------|
E|----------------------------------------------------------------|

1:13

G|----------------------------------------------------------------|
D|--------------------------------5-----------5---5-------3-------|
A|5-----------5---5-----------5-----------------------------------|
E|----------------------------------------------------------------|

G|--------------------------------|
D|1-----------1---1---------------|
A|----------------------------1---|
E|--------------------------------|

G|----------------------------------------------------------------|
D|1-----------1-----------1-------1-----------1-----------1-------|
A|----------------------------------------------------------------|
E|----------------------------------------------------------------|

1:23

G|----------------------------------------------------------------|
D|3-----------3---3-------0-------1-----------1-----------0---1---|
A|----------------------------1-------------------1---3-----------|
E|----------------------------------------------------------------|

G|----------------------------------------------------------------|
D|3-----------3---3-----------3-----------------------0---1---3---|
A|--------------------------------1-----------1---3---------------|
E|----------------------------------------------------------------|

G|----------------------------------------------------------------|
D|----------------------------0---1-----------1-----------0---1---|
A|1-----------1---1-------------------------------1---3-----------|
E|----------------------------------------------------------------|

G|----------------------------------------------------------------|
D|3-----------3---3-----------3-------------------------------0---|
A|--------------------------------1-----------1---1---1---3-------|
E|----------------------------------------------------------------|

1:39

G|----------------------------0---1-----------1---1-----1-1---2---|
D|1-----------1---1-------3---------------------------------------|
A|----------------------------------------------------------------|
E|----------------------------------------------------------------|

G|3-----------3---1-----------------------------------------------|
D|--------------------3---1---0-------------------------------0---|.
A|--------------------------------1-----------1---1---1---3-------|
E|----------------------------------------------------------------|

G|----------------------------0---1-----------1---1---------------|
D|1-----------1---1-------3---------------------------------------|
A|----------------------------------------------------------------|
E|----------------------------------------------------------------|

G|----------------------------------------------------------------|
D|----0-------1-------------------3-----------3-------1-----------|
A|3-------------------------------------------------------3---3---|
E|----------------------------------------------------------------|

G|--------------------------------|
D|--------------------------------|
A|------------------------0-------|
E|1-----------1---3---------------|

1:58

G|----------------------------------------------------------------|
D|--------------------------------1-----------1-----------0---1---|
A|1-----------1---1-------------------------------1---3-----------|
E|----------------------------------------------------------------|

G|----------------------------------------------------------------|
D|3-----------3---3-----------3-----------------------0---1---3---|
A|--------------------------------1-----------1---3---------------|
E|----------------------------------------------------------------|

G|----------------------------------------------------------------|
D|--------------------------------1-----------1-----------0---1---|
A|1-----------1---1-------------------------------1---3-----------|
E|----------------------------------------------------------------|

G|----------------------------------------------------------------|
D|3-----------3---3-----------3-----------------------0---1---3---|
A|--------------------------------1-----------1---3---------------|
E|----------------------------------------------------------------|

2:13

G|----------------------------------------------------------------|
D|----------------------------0---1-----------1-----------0---1---|
A|1-----------1---1-------------------------------1---3-----------|
E|----------------------------------------------------------------|

G|--------------------------------3---1---------------------------|
D|3-----------3---3---------------------------3-------3---1---0---|
A|----------------------------------------------------------------|
E|----------------------------------------------------------------|

G|----------------------------------------------------------------|
D|----------------------------0---1-----------1-----------0---1---|
A|1-----------1---1-------------------------------1---3-----------|
E|----------------------------------------------------------------|

G|--------------------|
D|3-----------3---3---| fades out here.
A|--------------------|
E|--------------------|

            
            
Suggest correction
Creating personal tab
Creating personal tab
You can edit any tab online and save it as your Personal.

You can edit, replace or remove any tab part or add personal notes – all changes will be seen only by you.

Personal tabs can be accessed anytime from any device, even offline.
Learn more »
Give kudos to tab author, rate the tab!
1 2 3 4 5
comments
print report bad tab
guest
You may want to rate the tab now too:
select rating
Wanna post a correction for this tab? Suggest correction