Oops, an error
Loading. Please wait.

Brain Scan Tab

version 1
version 1

Whole song

Interactive

2,043 views 1 this week
no commentswrite comment
1 2 3 4 5
please rate
add to favorites
launch autoscroll
font size
0
reset
how to read this tab
guitar tuner
Autoscroll
slow
fast
+/-
esc
set tempo
stop
Help us to improve Ultimate-Guitar.com Take our survey!
×
Author
Difficulty
intermediate
---------------------------------------------------------------------------
                          BRAIN SCAN - Voivod
---------------------------------------------------------------------------
Tabbed by: Greg Frisenda
Email: clanktherobot@yahoo.com

Tuning: Standard

Riff A - Intro Verse (with delay)
e|--------------------------------------------------------------|
B|--------------------------------------------------------------|
G|----------------------------2------------------------------2--|
D|----2-----4-------2---2--4--------2-----4-------2----2--4-----|
A|-3-----3-----3-3----3----------3-----3-----3-3-----3----------|
E|--------------------------------------------------------------|

e|--------------------------------------------------------------|
B|--------------------------------------------------------------|
G|----------------------------2------------------------------2--|
D|----2-----4-------2---2--4--------2-----4-------2----2--4-----|
A|--------------------------------------------------------------|
E|-2-----2-----2-2----2----------2-----2-----2-2-----2----------|

e|--------------------------------------------------------------|
B|--------------------------------------------------------------|
G|----------------------------2------------------------------2--|
D|----2-----4-------2---2--4--------2-----4-------2----2--4-----|
A|-3-----3-----3-3----3----------2-----2-----3-3-----3----------|
E|--------------------------------------------------------------|

e|--------------------------------------------------------------|
B|--------------------------------------------------------------|
G|----------------------------2------------------------------2--|
D|----2-----4-------2---2--4--------2-----4-------2----2--4-----|
A|-------------3-3----3----------2-----2-----3-3-----3----------|
E|-2-----2------------------------------------------------------|

e|--------------------------------------------------------------|
B|--------------------------------------------------------------|
G|----------------------------2------------------------------2--|
D|----2-----4-------2---2--4--------2-----4-------2----2--4-----|
A|-3-----3-----3-3----3----------2-----2-----3-3-----3----------|
E|--------------------------------------------------------------|

e|--------------------------------------------------------------|
B|--------------------------------------------------------------|
G|----------------------------2------------------------------2--|
D|----2-----4-------2---2--4--------2-----4-------2----2--4-----|
A|-------------3-3----3----------2-----2-----3-3-----3----------|
E|-2-----2------------------------------------------------------|

Riff B - 2x
e|-----------------------------|
B|-----------------------------|
G|-5--4--5---------------------|
D|-5--4--5---------------------|
A|-3--2--3---3-3-3-3-3-3-3-3---|
E|-----------------------------|

Riff C - Pre-Chorus - 2x
e|------------------------------------------------|
B|---------------------------------7--7-7-7-7-7---|
G|-------------------------5--5-5--5--5-5-5-5-5---|
D|-----------4--4-4-4-4-4--4--4-4-----------------|
A|-3---3-3---3--3-3-3-3-3-------------------------|
E|-2---2-2----------------------------------------|

Repeat Riff B - 2x
Repeat Riff C - 2x
Repeat Riff B - 4x (ending short)

Riff D - Chorus 1 - 2x
e|----------------------------------------------------------|
B|----------------------------------------------------------|
G|-5-7-----------5-7-----------5-7-----------5-7------------|
D|-5-7-----------5-7-----------5-7-----------5-7------------|
A|------0-0-0-0-------0-0-0-0-------0-0-0-0-------0-0-0-0---|
E|----------------------------------------------------------|

e|----------------------------------------------------------|
B|----------------------------------------------------------|
G|-5-8-----------5-8-----------5-8-----------5-8------------|
D|-5-8-----------5-8-----------5-8-----------5-8------------|
A|------0-0-0-0-------0-0-0-0-------0-0-0-0-------0-0-0-0---|
E|----------------------------------------------------------|

Riff E
e|------------------10-10-10-10-10-10-8---------------------|
B|------------------10-10-10-10-10-10-8---------------------|
G|-7-7-7-7-7-7-8----7--7--7--7--7--7--8----7-7-7-7-7-7-5----|
D|-7-7-7-7-7-7-8---------------------------7-7-7-7-7-7-5----|
A|-5-5-5-5-5-5-6--------------------------------------------|
E|----------------------------------------------------------|

e|-----------------|
B|-----------------|
G|-----------------|
D|-----------------|
A|-5-5-5-5-5-5-3---|
E|-5-5-5-5-5-5-3---|

Riff F - repetitive chord
e|--10----|
B|--9-----|
G|--7-----|
D|--------|
A|--------|
E|--------|

Riff G - Chorus 2 - 5x (with repetitive ending)
e|--------------------------------------------|
B|--------------------------------------------|
G|-----------------5-4--2-2--2--2-2--2--5-4---|
D|------2-------2-------1-1--1--1-1--1--------|
A|------4-------4-----------------------------|
E|-2-2--2--2-2--2-----------------------------|

Repeat Sequence from Riff c thru Riff G
Repeat Riff C (cut short with next riff)

Riff H (with extended ending, same chord and notes, follow rhythm)
e|-11----6---8--------11----6---8---------11----6---8---------14----------|
B|-11----6---8--------11----6---8---------11----6---8---------14----------|
G|-10----5---7--------10----5---7---------10----5---7---------13----------|
D|------------------------------------------------------------------------|
A|------------------------------------------------------------------------|
E|--------------0--0----------------0--0----------------0--0------0--0--0-|

e|-14-----14------|
B|-14-----14------|
G|-13-----13------|
D|----------------|
A|----------------|
E|-----0------0---|

Solo (bend on *)
   *          *                                               *
e|------------------------------------------------------------------------|
B|------------------------------------------------------------15--12-15-12|
G|-7---5-7-5--------------------------------------------------------------|
D|------------7---5-7-5-7-5-----------------------------------------------|
A|---------------------------7----5-7-5---5-------------------------------|
E|--------------------------------------7----7-5-7-5--3--0----------------|
   *hold *release                         *half bend
e|------------------------------------------------------------------------|
B|----12------------------------------------------------------------------|
G|-14----14-12-14-12----12-14-12----12-14-15------------------------------|
D|-------------------14----------14---------------------------------------|
A|------------------------------------------------------------------------|
E|------------------------------------------------------------------------|
   *              *                           *                 *
e|--------------------------------------------15---12-15-12---------------|
B|-15---12-15-12--------------------------------------------15--15--------|
G|----------------14---12-14-12-------------------------------------------|
D|------------------------------14---12-----------------------------------|
A|------------------------------------------------------------------------|
E|------------------------------------------------------------------------|
                                *
e|-12-15-12-14-12-15-12-14-12---15----------------------------------------|
B|------------------------------------------------------------------------|
G|------------------------------------------------------------------------|
D|------------------------------------------------------------------------|
A|------------------------------------------------------------------------|
E|------------------------------------------------------------------------|

Riff I _ Interlude 1 (with delay)
e|---------------------------------------------------------------------|
B|---------------------------------------------------------------------|
G|---------------------------------------------------------------------|
D|-4----------------4----------------6----------------6----------------|
A|----3--5-------------3--5-------------5--7-------------5--7----------|
E|----------4--4-4-----------4--4-4-----------6--6-6-----------6--6-6--|

Riff J - Interlude 2
e|-------------------------------------------------------------------------|
B|-------------------------------------------------------------------------|
G|-11-14--14--11-14--14--11-14--14--11-11-11-14--14--11-14--14--11-14--14--|
D|-9--12--12--9--12--12--9--12--12--9--9--9--12--12--9--12--12--9--12--12--|
A|-7--10--10--7--10--10--7--10--10--7--7--7--10--10--7--10--10--7--10--10--|
E|-------------------------------------------------------------------------|

e|------------------------------------------------------------------|
B|------------------------------------------------------------------|
G|-11-11-12-15--15--12-15--15--12-15--15--12-12-17-17-17-17-17-17---|
D|-9--9--10-13--13--10-13--13--10-13--13--10-10-15-15-15-15-15-15---|
A|-7--7--8--11--11--8--11--11--8--11--11--8--8--13-13-13-13-13-13---|
E|------------------------------------------------------------------|

e|---------------------------------------------------------|
B|---------------------------------------------------------|
G|-17-17-17-17-17-17-20-20-20-20-20-20-20-20-20-20-20-20---|
D|-15-15-15-15-15-15-18-18-18-18-18-18-18-18-18-18-18-18---|
A|-13-13-13-13-13-13-16-16-16-16-16-16-16-16-16-16-16-16---|
E|---------------------------------------------------------|

Repeat Riff G 5x with repetitive ending
Repeat Riff C 2x
Repeat Riff B with cut ending


| /  slide up
| \  slide down
| h  hammer-on
| p  pull-off
| ~  vibrato
| +  harmonic
| x  Mute note
===========================================================================

Suggest correction
What's this?
You can suggest a correction to this tab. Community and Mods will review your correction and vote to approve or reject it.
comments
We did not receive enough feedback on this tab! Please rate:
print report bad tab
1 2 3 4 5
guest
You may want to rate the tab now too:
select rating
Please do not post tabs as comments. Select "correction" instead!