Oops, an error
Loading. Please wait.

Chaosmongers Tab

1,558 views 1 this week
no commentswrite comment
1 2 3 4 5
please rate
add to favorites
launch autoscroll
font size
0
reset
how to read this tab
guitar tuner
Tab Pro tools
  • play this tab
  • loop segment
  • change instrument
  • show fretboard
  • metronome
×
Best way to learn
"Chaosmongers"
Autoscroll
slow
fast
+/-
esc
set tempo
stop
Contributor
Difficulty
intermediate
---------------------------------------------------------------------------
                          CHAOSMONGERS - Voivod
---------------------------------------------------------------------------

Tabbed by: Greg Frisenda
Email: clanktherobot@yahoo.com

Tuning: Standard E

Intro Fade In Chord (26x)
e|-9----|
B|-8----|
G|-6----|
D|------|
A|------|
E|------|

Riff A - Intro - 2x
e|---------------------------------------------------------|
B|--------------------------------------9---------------9--|
G|-----3----6------3----6------10-10-8--8------10-10-8--8--|
D|---3---3--5----3---3--5---8---------------8--------------|
A|-1-----------1-------------------------------------------|
E|---------------------------------------------------------|

Riff B - Verse - 8x
e|--------------------------------|
B|--------------------------------|
G|-8-8-7-8-8-7-8------------------|
D|-7-7-6-7-7-6-7--6-5-4-6-5-5-4---|
A|----------------5-4-3-5-4-4-3---|
E|--------------------------------|

Riff C - Chorus - 4x
e|---------------------------|
B|---------------------------|
G|-0-------------------------|
D|-0-------6-5-5-6-5-5-6-5---|
A|-x--3-5--6-5-5-6-5-5-6-5---|
E|-3--6----------------------|

Repeat Riff B 8x
Repeat Riff C 4x

Riff D - Bridge - 4x
e|------------------------------------------------------------------------|
B|-------------------------6-6-6-6---------8-8-8-8---------9-9-9-9--------|
G|-7-7-7-7-5-5-5-5-7-7-7-7-5-5-5-5-7-7-7-7-7-7-7-7-7-7-7-7-8-8-8-8--------|
D|-7-7-7-7-5-5-5-5-7-7-7-7-3-3-3-3-7-7-7-7-5-5-5-5-7-7-7-7-6-6-6-6--------|
A|-5-5-5-5-3-3-3-3-5-5-5-5---------5-5-5-5---------5-5-5-5----------------|
E|------------------------------------------------------------------------|

Riff E - Bridge - 4x
e|-8-8-8-8-8-8-8-8-7-7-7-7-7-7-7-7-13-13-13-13-13-13-13-13-11-11-11-11-11-|
B|-9-9-9-9-9-9-9-9-8-8-8-8-8-8-8-8-10-10-10-10-10-10-10-10-8--8--8--8--8--|
G|-8-8-8-8-8-8-8-8-7-7-7-7-7-7-7-7-10-10-10-10-10-10-10-10-8--8--8--8--8--|
D|------------------------------------------------------------------------|
A|------------------------------------------------------------------------|
E|------------------------------------------------------------------------|

e|-11-11-11--|
B|-8--8--8---|
G|-8--8--8---|
D|-----------|
A|-----------|
E|-----------|

Riff F - Bridge - 4x
e|------------------------------------------------------------------------|
B|------------------------------------------------------------------------|
G|-------------------------5-5-5-5---------7-7-7-7---------8-8-8-8--------|
D|-6-6-6-6-4-4-4-4-6-6-6-6-4-4-4-4-6-6-6-6-6-6-6-6-6-6-6-6-7-7-7-7--------|
A|-5-5-5-5-3-3-3-3-5-5-5-5---------5-5-5-5---------5-5-5-5----------------|
E|------------------------------------------------------------------------|

Repeat Riff E 4x

Riff G - 4x
e|-12-12-12-12-12-12-12-12-12--17--12-12-12-12-12-12-12-12-12-12-12-12----|
B|-10-10-10-10-10-10-10-10-10--15--10-10-10-10-10-10-10-10-10-10-10-10----|
G|-9--9--9--9--9--9--9--9--9---14--9--9--9--9--9--9--9--9--9--9--9--9-----|
D|------------------------------------------------------------------------|
A|------------------------------------------------------------------------|
E|------------------------------------------------------------------------|

e|-12-12-12-11-11-11--8--8--8--11-11-11--|
B|-10-10-10-9--9--9---9--9--9--9--9--9---|
G|-9--9--9--8--8--8---10-10-10-8--8--8---|
D|---------------------------------------|
A|---------------------------------------|
E|---------------------------------------|

Riff H - 2nd Bridge
e|-10-10-10-10-10-10-10-10-10-10-10-10-10-10-10-10-10-10-11-14-16-16-16-16|
B|-11-11-11-11-11-11-11-11-11-11-11-11-11-11-11-11-11-11-12-12-14-14-14-14|
G|-12-12-12-12-12-12-12-12-12-12-12-12-12-12-12-12-12-12-13-11-13-13-13-13|
D|------------------------------------------------------------------------|
A|------------------------------------------------------------------------|
E|------------------------------------------------------------------------|

e|-16-16-18-18-18-|
B|-14-14-16-16-16-|
G|-13-13-15-15-15-|
D|----------------|
A|----------------|
E|----------------|

Solo (not transcribed, 2 solos are overdubbed)

Riff I - 3rd Bridge - 2x (insert pick slides where needed)
e|------------------|
B|------------------|
G|-------8-8-8------|
D|-7-----7-7-7--7---|
A|-6------------6---|
E|------------------|

Riff J - 4x
e|----------------------------------------------|
B|-13-13-13-13-11-11-11-11-13-13-13-13-9-9-9-9--|
G|-12-12-12-12-11-11-11-11-13-13-13-13-8-8-8-8--|
D|----------------------------------------------|
A|----------------------------------------------|
E|----------------------------------------------|

Repeat Riff I 2x
Repeat Riff J 8x (with solo pieces)
Repeat Riff G 4x
Repeat Riff G 4x

End Riff                    (bs & dr break)
e|-9-6---9-6---9-6---9-6---9-------------9-9-9-9-9-9-9-9-9-9-9-9---9------|
B|-----8-----8-----8-----8---------------8-8-8-8-8-8-8-8-8-8-8-8---8------|
G|---------------------------------------6-6-6-6-6-6-6-6-6-6-6-6---6------|
D|------------------------------------------------------------------------|
A|------------------------------------------------------------------------|
E|------------------------------------------------------------------------|


| /  slide up
| \  slide down
| h  hammer-on
| p  pull-off
| ~  vibrato
| +  harmonic
| x  Mute note
===========================================================================
comments
We did not receive enough feedback on this tab! Please rate:
print report bad tab
1 2 3 4 5
I want to post or [tab]
guest
You may want to rate the tab now too:
select rating
Please do not post tabs as comments. Select "correction" instead!