Oops, an error
Loading. Please wait.

Freedoom Bass Tab

34 views 3 this week
no commentswrite comment
1 2 3 4 5
2 more votes to show rating
add to favorites
launch autoscroll
font size
0
reset
guitar tuner
Autoscroll
slow
fast
+/-
esc
set tempo
stop
Help us to improve Ultimate-Guitar.com Take our survey!
×
Author
Difficulty
intermediate
About this tab version
Bass tab for "Freedoom" by Voivod. Was this info helpful? Yes No
Band: Voivod
Album: Angel Rat
Song: Freedoom
Tab: Bass
Tabbed by: muberal

It's worth noting that Blacky probably used a five-string bass for this, though with an added high string
tuned to C instead of a lower string. This'd make the chords in Part 2 much easier.

Tempo: 118bpm
4/4

[Part 1 Intro]

Guitar Intro. Four empty measures.

[Part 1 Verse A]

G|----------------------------|----------------------------|
D|----------------------------|----------------------------|
A|----------------------------|--3-------------------------|
E|--3--------------------3----|----------------------------| x8

[Part 1 Verse B]

G|----------------------------|----------------------------|
D|----------------------------|----------------------------|
A|----------------------------|--3-------------------------|
E|--3--------------------3----|----------------------------| x5

G|----------------------------|----------------------------|
D|----------------------------|----------------------------|
A|----------------------------|--3-------------------------|
E|--3--------------------3----|-----------------------1/---|

[Part 1 Verse C]

G|----------------------------|----------------------------------------------------|
D|----------------------------|--------------------------------------1-------------|
A|----------------------------|--3-----------------3-----------1--3--------3-------|
E|--3--------3--3--------3----|----------------------------------------------------|

G|----------------------------|----------------------------|
D|----------------------------|----------------------------|
A|----------------------------|--3--------3-----3--3--1----|
E|--3-----3-----3--------3----|----------------------------|

G|----------------------------|----------------------------------------------------|
D|----------------------------|--------------------------------------1-------------|
A|----------------------------|--3-----------------3-----------1--3--------3-------|
E|--3-----3-----3--------3----|----------------------------------------------------|

G|----------------------------|----------------------------|
D|----------------------------|----------------------------|
A|----------------------------|--3--------3-----3--3--1----|
E|--3-----3-----3--------3----|----------------------------|

G|----------------------------|----------------------------------------------------|
D|----------------------------|----------------------------------------------------|
A|----------------------------|--3-----------------3-----------3--3--3-----1-------|
E|--3-----------3--------3----|----------------------------------------------------|

G|----------------------------|----------------------------------------------------|
D|----------------------------|----------------------------------------------------|
A|----------------------------|--3-----------------3--3--3-----3--3--3-----1-------|
E|--3-----------3--------3----|----------------------------------------------------|

G|----------------------------|----------------------------------------------------|
D|----------------------------|--------------------------------------1-------------|
A|----------------------------|--3----------(3)----3-----------1--3--------3-------|
E|--3-----3-----3----(3)-3----|----------------------------------------------------|

G|----------------------------|----------------------------|
D|----------------------------|----------------------------|
A|----------------------------|--3-----3--3-----3--3--1----|
E|--3-----3-----3----(3)-3----|----------------------------|

[Part 1 Outro]

G|----------------------------|----------------------------|
D|----------------------------|----------------------------|
A|----------------------------|--3-------------------------|
E|--3--------------------3----|----------------------------| x3

G|----------------------------|
D|----------------------------|
A|----------------------------|
E|--3-------------------------| hold for five measures

One empty measure.

Tempo: 132bpm

[Part 2 Verse 1]

G|--------------------12>-------10---------|-----------------------------------------|
D|-----------------0--12>----0--10---------|------------------0----------------------|
A|--------------------10>-10----8----------|------------10>10----8--8--8--8--8--8----|
E|--3-----3--------------------------------|-----------------------------------------| x2

G|-----------------------------------------|-----------------------------------------|
D|--------------------7--------------------|-----------------------------------------|
A|--0-----0--------0------------7----------|---------7--8----------------------------|
E|-----------------------------------------|---------------------8--8--8--8--8--8----| x2

[Part 2 Bridge A]

7/8

G|-------------------------|-------------------------|
D|-------------------------|-------------------------|
A|--0-----0----------------|--8-----8----------------|
E|-----------0-----0--0----|-----------8-(8)-8-(8)---| x4

[Part 2 Verse 2]

4/4

G|--------------------12>-------10---------|-----------------------------------------|
D|-----------------0--12>-------10---------|------------------0----------------------|
A|--------------------10>-------8----------|------------10>10----8--8--8--8--8--8----|
E|--3-----3--------------------------------|-----------------------------------------|

G|--------------------12>-------10---------|-----------------------------------------|
D|-----------------0--12>----0--10---------|------------------0----------------------|
A|--------------------10>-10----8----------|------------10>10----8--8--8--8--8--8----|
E|--3-----3--------------------------------|-----------------------------------------|

G|-----------------------------------------|-----------------------------------------|
D|--------------------7--------------------|-----------------------------------------|
A|--0-----0--------0------------7----------|---------7--8----------------------------|
E|-----------------------------------------|---------------------8--8--8--8--8--8----| x2

[Part 2 Bridge B]

  7/8                                                                        9/8
G|------------------------|------------------------|------------------------|-----------------------------|
D|------------------------|------------------------|------------------------|-----------------------------|
A|--0--------2------------|--3--------5------------|--7--------2------------|--3--------5-----------7-----|
E|------------------------|------------------------|------------------------|-----------------------------| x5

  7/8                                                                        9/8
G|------------------------|------------------------|------------------------|-----------------------------|
D|------------------------|------------------------|------------------------|-----------------------------|
A|--0--------2------------|--3--------5------------|--7--------2------------|--3--------5-----------7-----|
E|------------------------|------------------------|------------------------|--------------------------8--|

[Part 2 Climax]

4/4

G|----------------------------------------------------|---------------------------------------------------|
D|--7-----------7-----7-----7--7--7--7--7-------------|---------------------------------------------------|
A|--------------------------------------------10------|--7-----7--7--7--7--7--7--7--7--7-----7-----7------|
E|----------------------------------------------------|---------------------------------------------------|

G|----------------------------------------------------|---------------------------------------------------|
D|--7-----7--7--7-----7-----7--7--7--7--7-------------|---------------------------------------------------|
A|--------------------------------------------10------|--7-----7--7--7-----10----7--7--7--7--10----7------|
E|----------------------------------------------------|---------------------------------------------------|

G|----------------------------------------------------|---------------------------------------------------|
D|--7--7--7--7--7--7--7--7--7--7--7--7--7--7----------|---------------------------------------------------|
A|--------------------------------------------10------|--7>-7--7--7--7--7--7>-7--7--7--7--7--7>-7--7--7---|
E|----------------------------------------------------|---------------------------------------------------|

G|----------------------------------------------------|---------------------------------------------------|
D|--7--7--7--7--7--7--7--7--7--7--7--7--7--7----------|---------------------------------------------------|
A|--------------------------------------------10------|--7--7--7--7--7--7--10----7--7--7--7--10----7------|
E|----------------------------------------------------|---------------------------------------------------|

G|----------------------------------------------------|---------------------------------------------------|
D|--7--7--7--7--7--7--7--7--7--7--7--7--7--7----------|---------------------------------------------------|
A|--------------------------------------------10------|--7>-7--7--7--7--7--7>-7--7--7--7--7--7>-7--7--7---|
E|----------------------------------------------------|---------------------------------------------------|

G|----------------------------------------------------|---------------------------------------------------|
D|--7--7--7--7--7--7--7--7--7--7--7--7--7--7----------|---------------------------------------------------|
A|--------------------------------------------10------|--7--7--7--7--7--7--10----7--7--7--7--10-10-7--7---|
E|----------------------------------------------------|---------------------------------------------------|

G|----------------------------------------------------|---------------------------------------------------|
D|--7--7--7--7--7--7--10----7--7--7--7--10----7--7----|---------------------------------------------------|
A|----------------------------------------------------|--7--7--7--7--7--7--10----7--7--7--7--10-10-7------|
E|----------------------------------------------------|---------------------------------------------------| x2

G|----------------------------------------------------|---------------------------------------------------|
D|--7--7--7--7--7--7--10----7--7--7--7--10----7--7----|---------------------------------------------------|
A|----------------------------------------------------|--7--7--7--7--7--7--10----7--7--7--7--10----7------|
E|----------------------------------------------------|---------------------------------------------------|

G|----------------------------------------------------|---------------------------------------------------|
D|--7--7--7--7--7--7--10----7--7--7--7--10----7--7----|---------------------------------------------------|
A|----------------------------------------------------|--7--7--7--7--7--7--10----7--7--7--7--10-10-7------|
E|----------------------------------------------------|---------------------------------------------------|

G|----------------------------------------------------|---------------------------------------------------|
D|--7--7--7--7--7--7--7--7--7--7--7--7--7--7----------|---------------------------------------------------|
A|--------------------------------------------10-10---|--7--7--7--7--7--7--7--7--7--7--7--7--7--7--7------|
E|----------------------------------------------------|---------------------------------------------------|

G|----------------------------------------------------|---------------------------------------------------|
D|--7--7--7--7--7--7--7--7--7--7--7--7--7-------------|---------------------------------------------------|
A|--------------------------------------------10------|--7--7--7--7--7--7--7--7--7--7--7--7--7--7--7------|
E|----------------------------------------------------|---------------------------------------------------|

G|----------------------------------------------------|---------------------------------------------------|
D|--7--7--7--7--7--7--10----7--7--7--7--10----7--7----|---------------------------------------------------|
A|----------------------------------------------------|--7--7--7--7--7--7--10----7--7--7--7--10-10-7------|
E|----------------------------------------------------|---------------------------------------------------|

G|----------------------------------------------------|---------------------------------------------------|
D|--7--7--7--7--7--7--10----7--7--7--7--10----7--7----|---------------------------------------------------|
A|----------------------------------------------------|--7--7--7--7--7--7--10----7--7--7--7--10----7------|
E|----------------------------------------------------|---------------------------------------------------|

G|-----------------------------|
D|--7--------------------------|
A|-----------------------------|
E|-----------------------------|

Fin.

************************************
 
| /  slide up
|(n) ghost note
| >  accentuated note

************************************
Suggest correction
Give kudos to tab author, rate the tab!
1 2 3 4 5
comments
print report bad tab
guest
You may want to rate the tab now too:
select rating
Wanna post a correction for this tab? Suggest correction