Oops, an error
Loading. Please wait.

Inner Combustion Tab

version 1
version 1

Whole song

Interactive

971 views 1 this week
no commentswrite comment
1 2 3 4 5
please rate
add to favorites
launch autoscroll
font size
0
reset
how to read this tab
guitar tuner
Autoscroll
slow
fast
+/-
esc
set tempo
stop
Help us to improve Ultimate-Guitar.com Take our survey!
×
Author
Difficulty
intermediate
---------------------------------------------------------------------------
                          INNER COMBUSTION - Voivod
---------------------------------------------------------------------------

Tabbed by: Greg Frisenda
Email: clanktherobot@yahoo.com

Tuning: Standard E

Riff A1 - Intro - 2x
e|-----------------------------|
B|--------3--3-----------------|
G|-2--2---2--2---2--2---5---5--|
D|-4--4---0--0---2--2---5---5--|
A|-----------------------------|
E|-----------------------------|

Riff A2 - Intro - 2x
e|-----------------------------|
B|-7--7---10-10----------------|
G|-6--6---9--9---7--7----------|
D|---------------7--7---7---7--|
A|----------------------8---8--|
E|-----------------------------|

Riff A3 - Intro -2x
e|--------------------------------------|
B|--------------------------------------|
G|-----------------------------------5--|
D|-------4--------4--------4---------5--|
A|-------4--------4--------4------------|
E|-2-2-0-2--2-2-0-2--2-2-0-2--2-2-0-----|

Riff B
e|---6---7---8---9---10----11----12----13--|
B|-5---6---7---8---9----10----11----12-----|
G|-----------------------------------------|
D|-----------------------------------------|
A|-----------------------------------------|
E|-----------------------------------------|

Riff C - Verse - 8x (with Fill C 4th time)
e|---------------------------------|
B|--------------------------0------|
G|----------------------------0----|
D|------------------------------4--|
A|-3--3-3-3--5--5--3--3-3-3--------|
E|-5--5-5-5--7--7--5--5-5-5--------|

Fill C (harmonics)
e|--------------|
B|-------5------|
G|---5-----5----|
D|-5---5-----5--|
A|--------------|
E|--------------|

Riff D - Pre-Chorus - 4x
e|---------------------------------|
B|---------------------------------|
G|---------------------------3--3--|
D|-1--1-1-1--3--3--1--1-1-1--3--3--|
A|-3--3-3-3--5--5--3--3-3-3--1--1--|
E|---------------------------------|

Riff E1 - Chorus - 3x
e|--------------------3----6---------6----6--------6----6--|
B|------------------3------6---------6----6--------6----6--|
G|-3--5--3--------3--------5---------5----5--------5----5--|
D|-3--5--5------5------------------------------------------|
A|-1--3--5----5--------------------------------------------|
E|-------3--3-----------3----3-3-3-3----3----3-3-3----3----|

Riff E2 - Chorus - once
e|-------------------------------------------|
B|----------------6-------6---6-------6------|
G|-5--7--8--8---6---6---8---6---6---6---6-8--|
D|-5--7--7--7-7-------7-7---------7-------7--|
A|-3--5--6--6-----------6--------------------|
E|-------------------------------------------|

Repeat C 8x with Fill C 4th time
Repeat D 4x
Repeat E1 3x
Repeat E2 once

Riff F1 - 2x
e|---------------------------------------------|
B|---------------------------------------------|
G|---------------------------------------------|
D|---------6-----8-----10------12-------14-----|
A|-5-5-5-5---5-7---7-9----9-11----11-13----13--|
E|---------------------------------------------|

Riff F2 - 2x
e|-16-16-16-16-12--16--12--16--12--|
B|-15-15-15-15-11--15--11--15--11--|
G|---------------------------------|
D|---------------------------------|
A|---------------------------------|
E|---------------------------------|

Riff G - 4x with Overdub
e|-------------------|
B|-------------------|
G|-5-----------------|
D|---6-5--------5-6--|
A|-------8--6-8------|
E|-------------------|

Overdub
e|-------------------|
B|-------------------|
G|-8-7------------5--|
D|-----8-6--5-6-8----|
A|-------------------|
E|-------------------|

Solo - (*=full bend up and down, **=half bend)
   *                            *
e|-----------------------------------------------------------|
B|-15--13--15--13--11-13-11-10--15--13--15--13--11-13-11-10--|
G|-14--12--14--12--10-12-10-8---14--12--14--12--10-12-10-8---|
D|-----------------------------------------------------------|
A|-----------------------------------------------------------|
E|-----------------------------------------------------------|

   **   **   **   **   **    **    **    **    **    **
e|---10---10---10---10---10-----17----17----17----17----17---|
B|---------------------------15----15----15----15----15------|
G|-7----7----7----7----7-------------------------------------|
D|-----------------------------------------------------------|
A|-----------------------------------------------------------|
E|-----------------------------------------------------------|

Riff H - 3x
e|--------------8-9-11-15-15-13---|
B|-6-6-6-6-6----8-9-11-15-15-13---|
G|-5-5-5-5-5----------------------|
D|-6-6-6-6-6----------------------|
A|--------------------------------|
E|--------------------------------|

Repeat Riff F1 once
Repeat Riff H - 3x
Repeat Riff F1 once

Riff I - End Chorus - Repeat to fade
e|--------------------4----7---------7----7--------7----7--|
B|------------------4------7---------7----7--------7----7--|
G|-4--6--4--------4--------6---------6----6--------6----6--|
D|-4--6--6------6------------------------------------------|
A|-2--4--6----6--------------------------------------------|
E|-------4--4-----------4----4-4-4-4----4----4-4-4----4----|


| /  slide up
| \  slide down
| h  hammer-on
| p  pull-off
| ~  vibrato
| +  harmonic
| x  Mute note
===========================================================================
Suggest correction
Give kudos to tab author, rate the tab!
1 2 3 4 5
comments
print report bad tab
guest
You may want to rate the tab now too:
select rating
Please do not post tabs as comments. Select "correction" instead!