Oops, an error
Loading. Please wait.

Les Cigares Volants Bass Tab

152 views 1 this week
no commentswrite comment
1 2 3 4 5
3 more votes to show rating
add to favorites
launch autoscroll
font size
0
reset
guitar tuner
Autoscroll
slow
fast
+/-
esc
set tempo
stop
Help us to improve Ultimate-Guitar.com Take our survey!
×
Band- Voivod
Song- Les Cigares Volants

Play with distortion effect and pick

intro
G|---------|-----------------|-----------------|-----------------|-----------------|
D|---------|-----------------|-----------------|-----------------|-----------------|
A|---------|-----------------|-----------------|-----------------|-----------------|
E|----12\--|-0-0-0-2---(2)/--|-0-0-0-2----(2)/-|-0-0-0-2----(2)/-|-0-0-0-2----(2)/-|
                        ****              ****
(**** - use a scraping motion with your finger or pick for this sound)

verse 1
G|-----------------|-----------------|-----------------|------------------|
D|-----------------|-----------------|-----------------|------------------|
A|-----------------|-----------------|-----------------|------------------|
E|-0-0-0-2---------|-0-0-0-2---------|-0-0-0-2---------|-0-0-0-2----2/14\-|

Chorus
G|--------------------|-------------------|
D|*-------------------|------------------*|
A|*-------------------|---------------0--*|
E|-0-20-2-0-2-0-2-0-2-|-0-20-2-0-2-0-2-20-|
Reapeat x4

verse 2
G|-----------------|-----------------|-----------------|------------------|
D|-----------------|-----------------|-----------------|------------------|
A|-----------------|-----------------|-----------------|------------------|
E|-0-0-0-2----(2)/-|-0-0-0-2---------|-0-0-0-2---------|-0-0-0-2----2/14\-|

Chorus
G|--------------------|-------------------|
D|*-------------------|------------------*|
A|*-------------------|---------------0--*|
E|-0-20-2-0-2-0-2-0-2-|-0-20-2-0-2-0-2-20-|
Reapeat x4

Bridge
G|-------|-------------|--------------|------------------|
D|-------|-------------|--------------|------------------|
A|-------|------12h14--|--------------|------12h14-14-12-|
E|-0-----|-12-14-------|--12-12h14----|--12-14-----------|

G|-------|------------------|-------------------|--------------------|
D|-------|------------------|-------------------|--------------------|
A|-------|------12h14-12h14-|-------------------|------12h14---------|
E|-0-----|-12-14------------|--12-12h14-12h14---|--12-14-----14-12-9-|


G|--------------|
D|*------------*|
A|*------------*|
E|-0000-6-5-0-3-|
Repeat x4

Chorus
G|--------------------|-------------------|
D|*-------------------|------------------*|
A|*-------------------|---------------0--*|
E|-0-20-2-0-2-0-2-0-2-|-0-20-2-0-2-0-2-20-|
Reapeat x8

2nd Bridge

G|-------|--------------|-----------------|----------------------|
D|-------|--------------|-----------------|----------------------|
A|-------|------12h14---|-----------------|------12h14--14-12----|
E|-0-----|-12-14-----12-|--12-14-14h15-12-|--12-14----12-----14--|

G|------|--------------|--------------|---------------------------|
D|------|--------------|--------------|---------------------------|
A|------|------12h14---|------12h14---|------12h14-12h14-12-------|
E|-0----|-12-14-----12-|-12-14-----12-|-12-14--------------14-12\-|
G|--------------|
D|*------------*|
A|*------------*|
E|-0000-6-5-0-3-|
Repeat x16

G|----------|--------------|-------------|--------------|---------|
D|----------|--------------|-------------|--------------|---------|
A|----------|--------------|-------------|--------------|---------|
E|-0-----3--|-0-0--00---3--|-0-0-00----3-|-0-0-00----3--|-0-------|
Suggest correction
Give kudos to tab author, rate the tab!
1 2 3 4 5
comments
print report bad tab
guest
You may want to rate the tab now too:
select rating
Wanna post a correction for this tab? Suggest correction