Oops, an error
Loading. Please wait.

Lost Machine Tab

version 1
version 1

Whole song

Interactive

758 views 3 this week
1 commentread comment
1 2 3 4 5
2 more votes to show rating
add to favorites
launch autoscroll
font size
0
reset
how to read this tab
guitar tuner
Autoscroll
slow
fast
+/-
esc
set tempo
stop
Help us to improve Ultimate-Guitar.com Take our survey!
×
Author
Difficulty
intermediate
---------------------------------------------------------------------------
                          LOST MACHINE - Voivod
---------------------------------------------------------------------------

Tabbed by: Greg Frisenda
Email: clanktherobot@yahoo.com

Tuning: Standard E

Riff A - Intro (strum all strings open and add harmonics, mostly
at 4th and 5th frets where needed)
e|-0---------------------------------|
B|-0---------------------------------|
G|-0---------------------------------|
D|-0---------------------------------|
A|-0---------------------------------|
E|-0-----0-----0-----0---------------|

Riff B - Verse
e|------------------------------------------------------------------------|
B|------------------------------------------------------------------------|
G|------------------------------------------------------------------------|
D|-5--5---3--5--5-5--5--5---3--5--5-5--5--5---3--5--5-5--5--5---3--5--5-5-|
A|-5--5---3--5--5-5--5--5---3--5--5-5--5--5---3--5--5-5--5--5---3--5--5-5-|
E|-5--5---3--5--5-5--5--5---3--5--5-5--5--5---3--5--5-5--5--5---3--5--5-5-|

e|----------------------------------------------------10-10-10-10-10-10-10|
B|----------------------------------------------------10-10-10-10-10-10-10|
G|----------------------------------------------------9--9--9--9--9--9--9-|
D|5--5--3--5--5-5--5--5--3--5--5-5--5--5--3--5--5-5-5---------------------|
A|5--5--3--5--5-5--5--5--3--5--5-5--5--5--3--5--5-5-5---------------------|
E|5--5--3--5--5-5--5--5--3--5--5-5--5--5--3--5--5-5-5---------------------|

Riff C - Chorus
e|-10--6--6-----------------|
B|-10--6--6---3----6--------|
G|-9---5--5---0----0--------|
D|--------------------------|
A|------------3----6----5---|
E|----------------------0---|

Repeat Riff B - Second Verse
Repeat Riff C - Chorus

Riff D - Bridge 1
e|------------------------------------------------------------------------|
B|------------------------------------------------------------------------|
G|--------------------------------------7---------------------------------|
D|----------------------------5---5-7-9---9-------------------------------|
A|-5--7-7-7--5--7-7-7--5--7-7---7-------------5--7-7-7--5--7-7-7--5--7-7--|
E|------------------------------------------------------------------------|

e|-------------------------|
B|---------------------8---|
G|-----------7---7-9-7-----|
D|-5---5-7-9---9-----------|
A|---7---------------------|
E|-------------------------|

Riff E - Bridge 2
e|------------------------------------------------15-------15-------15-15-|
B|-12--14-14-14--12--14-14-14--12-14-12--15-15-15-15-15-15-15-15-15-15-15-|
G|-12--14-14-14--12--14-14-14--12-14-12--15-15-15-15-15-15-15-15-15-15-15-|
D|-12--14-14-14--12--14-14-14--12-14-12--15-15-15-15-15-15-15-15-15-15-15-|
A|------------------------------------------------------------------------|
E|------------------------------------------------------------------------|

Riff F - 4x
e|-----------------------|
B|-----------------------|
G|---6----4-----6--6-----|
D|---5----3-----5--5-----|
A|-----------------------|
E|-----------------------|

Riff G - Bridge 3
e|-----------5--5---------------------------------------5--5--------------|
B|-----------5--5---7-5--7------------------------------5--5---7-5--7-----|
G|-4--5--7---------------6--5-6-5-6--1-2-1-2--4--5--7---------------6-----|
D|------------------------------------------------------------------------|
A|------------------------------------------------------------------------|
E|------------------------------------------------------------------------|

e|-----------------------------5--5---------------------------------------|
B|-----------------------------5--5---7-5--7------------------------------|
G|-5-6-5-6--1-2-1-2--4--5--7---------------6--5-6-5-6--1-2-1-2-5-5-5-5-5-5|
D|------------------------------------------------------------------------|
A|------------------------------------------------------------------------|
E|------------------------------------------------------------------------|
                            *half bend                                   *
e|------------------------------------------------------------------------|
B|------------------------------------------------------------------------|
G|-5-5-5-5-5-5-5-5-5-5-5-5--7-------5-5-5-5-5-5-5-5-5-5-5-5-5-5-5-5-5-5--7|
D|------------------------------------------------------------------------|
A|------------------------------------------------------------------------|
E|------------------------------------------------------------------------|

Riff H - Bridge 4
e|------------------------------------------------------------------------|
B|-5-5-5-5-5-5-5-5-5-5-5-5-5-5-5-5-5-5-5-5-5-5-5-5-5-5-5-5-5-5-5-5-5-5-5-5|
G|-5-5-5-5-5-5-5-5-5-5-5-5-5-5-5-5-5-5-5-5-5-5-5-5-5-5-5-5-5-5-5-5-5-5-5-5|
D|------------------------------------------------------------------------|
A|------------------------------------------------------------------------|
E|------------------------------------------------------------------------|

e|------------------------------------------------------------------------|
B|-7-7-7-7-7-7-7-7-7-7-7-7-7-7-7-7-7-7-7-7-7-7-7-7-7-7-7-7-7-7-7-7-7-7-7-7|
G|-5-5-5-5-5-5-5-5-5-5-5-5-5-5-5-5-5-5-5-5-5-5-5-5-5-5-5-5-5-5-5-5-5-5-5-5|
D|------------------------------------------------------------------------|
A|------------------------------------------------------------------------|
E|------------------------------------------------------------------------|

e|-8-8-8-8-8-8-8-8-8-8-8-8-8-8-8-8-8-8-8-8-8-8-8-8-8-8-8-8-8-8-8-8-8-8-8-8|
B|-7-7-7-7-7-7-7-7-7-7-7-7-7-7-7-7-7-7-7-7-7-7-7-7-7-7-7-7-7-7-7-7-7-7-7-7|
G|-5-5-5-5-5-5-5-5-5-5-5-5-5-5-5-5-5-5-5-5-5-5-5-5-5-5-5-5-5-5-5-5-5-5-5-5|
D|------------------------------------------------------------------------|
A|------------------------------------------------------------------------|
E|------------------------------------------------------------------------|

Repeat Riff B with Harmonic Fill

Harmonic Fill
    raise pitch
e|--4-----------|
B|--4-----------|
G|--4-----------|
D|--4-----------|
A|--------------|
E|--------------|

Repeat Riff B - 3rd Verse
Repeat Riff C - Chorus
Repeat Riff D - Bridge 1
Repeat Riff E - Bridge 2 (fade out, end)


| /  slide up
| \  slide down
| h  hammer-on
| p  pull-off
| ~  vibrato
| +  harmonic
| x  Mute note
===========================================================================
Suggest correction
Give kudos to tab author, rate the tab!
1 2 3 4 5
comments
print report bad tab
1 comment total.
0 reply
Clydelee 291 Feb 02, 2014 04:04 PM

Love The Outer Limits, this is great, would love to see more off the album!!

guest
You may want to rate the tab now too:
select rating
Wanna post a correction for this tab? Suggest correction