Oops, an error
Loading. Please wait.

Missing Sequences Tab

version 1
version 1

Whole song

Interactive

1,235 views 1 this week
no commentswrite comment
1 2 3 4 5
please rate
add to favorites
launch autoscroll
font size
0
reset
how to read this tab
guitar tuner
Tab Pro tools
  • play this tab
  • loop segment
  • change instrument
  • show fretboard
  • metronome
×
Best way to learn
"Missing Sequences"
Autoscroll
slow
fast
+/-
esc
set tempo
stop
Contributor
Difficulty
intermediate
---------------------------------------------------------------------------
			 MISSING SEQUENCES - Voivod
---------------------------------------------------------------------------
Tabbed by: Greg Frisenda
Email: clanktherobot@yahoo.com

Tuning: Standard
Riff A - Clean Intro - 8x
e|-0--------4--0--0---|
B|-0--0--0--0--4--5---|
G|----3--4------------|
D|--------------------|
A|--------------------|
E|--------------------|

Riff B1 - Verse - 2x
e|---------------------------|
B|---------------------------|
G|---------------------------|
D|---------------------------|
A|------------------------4--|
E|-0-0-0-0-0-0-0-0-0-0-3-----|

Riff B2 - Verse - 2x
e|---------------------------|
B|---------------------------|
G|---------------------------|
D|------------------------2--|
A|------------------------4--|
E|-0-0-0-0-0-0-0-0-0-0-3-----|

Riff B3 - Verse - 8x
e|---------------------------|
B|------------------------0--|
G|------------------------1--|
D|-4-4-4-4-4-4-4-4-4-4-4--1--|
A|-2-2-2-2-2-2-2-2-2-2-2-----|
E|-0-0-0-0-0-0-0-0-0-0-0-----|

Riff B3 overdub
e|----------------------------14---12---11---12---|
B|-----------12---11-12-11----12---11---12---11---|
G|-11---13----------------------------------------|
D|------------------------------------------------|
A|------------------------------------------------|
E|------------------------------------------------|

Riff C - Chorus - 4x
e|-------------------------------------------------------|
B|-------------------------------------------------------|
G|-5---5----5-5-5-5---5---5------------------------------|
D|-4---4----4-4-4-4---4---4--------4-----4-----4-----4---|
A|-3---3----3-3-3-3---3---3------3-----3-----3-----3-----|
E|-----------------------------2-----2-----2-----2-------|

Riff D1 - Chorus - 2x
e|-----------------------------------------------------10-8---8---8--|
B|-5-4---4---4--5-4---4---4--5-4---4---4--5-4---4---4--8--8-8-8-8-8--|
G|-----5---5--------5---5--------5---5--------5---5---------8---8----|
D|-------------------------------------------------------------------|
A|-------------------------------------------------------------------|
E|-------------------------------------------------------------------|

Riff D2 - Chorus
e|---------------------------5-2---2---2--5-2---2---2--8-5---5---5---|
B|-5-4---4---4--5-4---4---4------4---4--------4---4--------7---7-----|
G|-----5---5--------5---5--------------------------------------------|
D|-------------------------------------------------------------------|
A|-------------------------------------------------------------------|
E|-------------------------------------------------------------------|

e|-8-5---5---5--11-8----8----8---11-8----8-11-8----8-11-8----8-11-8----8--|
B|-----7---7---------10---10----------10--------10--------10--------10----|
G|------------------------------------------------------------------------|
D|------------------------------------------------------------------------|
A|------------------------------------------------------------------------|
E|------------------------------------------------------------------------|

Riff E - Chorus - 4x
e|-7-7-7--0---7-7-7--------10----------|
B|-8-8-8----7-8-8-8-----10----10-8---7-|
G|-7-7-7------7-7-7--10------------7---|
D|-------------------------------------|
A|-------------------------------------|
E|-------------------------------------|

Break
e|-7--------|
B|-8--------|
G|-7--------|
D|----------|
A|----------|
E|----------|

Solo
e|-12---------------------------------------------------------------------|
B|----11----11------------------------------------------------------------|
G|-------10----10---10---------------------------------------6-7-9-7-6-7--|
D|----------------9----9---9------------------5---5-7-9--7-9--------------|
A|-----------------------8---8----------7-5-7---7-------------------------|
E|-----------------------------7--0---0-----------------------------------|

e|--------------15-12----15-12----15-12----15-12----17-12----17-12----17--|
B|--------------------12-------12-------12-------12-------12-------12-----|
G|-9-7-6---6--------------------------------------------------------------|
D|------------------------------------------------------------------------|
A|------------------------------------------------------------------------|
E|------------------------------------------------------------------------|
				       full bend         full bend
e|-12----17-12----17-12----17-12------------------------------------------|
B|----12-------12-------12-------12----15-------12-15-12------------------|
G|-------------------------------------------------------14--------12-14--|
D|------------------------------------------------------------------------|
A|------------------------------------------------------------------------|
E|------------------------------------------------------------------------|

e|---------------------------------------------|
B|---------------------------14-15-14----------|
G|-12----12--12-14-16--14-16----------16-12----|
D|----14------------------------------------14-|
A|---------------------------------------------|
E|---------------------------------------------|

Riff F - 3x
e|-13---17---13--11---13--13-11---|
B|-15---17---13--11---13--13-11---|
G|-14---19---12--10---12--12-10---|
D|--------------------------------|
A|--------------------------------|
E|--------------------------------|

Repeat B1 2x
Repeat B2 2x
Repeat B3 8x with overdub
Repeat C 4x
Repeat D1 2x
Repeat D2 
Repeat E 3x

Short Riff E
e|-7-7-7--0---7-7-7------------------|
B|-8-8-8----7-8-8-8--10----8----6----|
G|-7-7-7------7-7-7--10----8----6----|
D|-----------------------------------|
A|-----------------------------------|
E|-----------------------------------|

Riff F - End Verse - 3x
e|-6-6--8--6--8---6-6--8------6-6--8--6--8---6-6--8------6-6--8--6--8--|
B|-8-8--10-8--10--8-8--10-----8-8--10-8--10--8-8--10-----8-8--10-8--10-|
G|-7-7--9--7--9---7-7--9--5-7-7-7--9--7--9---7-7--9--5-7-7-7--9--7--9--|
D|------------------------5-7------------------------5-7---------------|
A|------------------------3-5------------------------3-5---------------|
E|---------------------------------------------------------------------|

e|-6-6--8--6--8---9---9-------------9-------9--------|
B|-8-8--10-8--10--11----11----11------11------11-----|
G|-7-7--9--7--9---10-------10----10------10------10--|
D|---------------------------------------------------|
A|---------------------------------------------------|
E|---------------------------------------------------|

End Chord
e|--------|
B|--------|
G|--------|
D|-3------|
A|-5------|
E|-3------|


| /  slide up
| \  slide down
| h  hammer-on
| p  pull-off
| ~  vibrato

| +  harmonic
| x  Mute note
===========================================================================
comments
We did not receive enough feedback on this tab! Please rate:
print report bad tab
1 2 3 4 5
I want to post or [tab]
guest
You may want to rate the tab now too:
select rating
Please do not post tabs as comments. Select "correction" instead!