Oops, an error
Loading. Please wait.

Missing Sequences Tab

version 2
version 2

Whole song

Interactive

552 views 1 this week
no commentswrite comment
1 2 3 4 5
please rate
add to favorites
launch autoscroll
font size
0
reset
how to read this tab
guitar tuner
Autoscroll
slow
fast
+/-
esc
set tempo
stop
Help us to improve Ultimate-Guitar.com Take our survey!
×
#----------------------------------PLEASE NOTE---------------------------------#
#This file is the author's own work and represents their interpretation of the #
#song. You may only use this file for private study, scholarship, or research. #
#------------------------------------------------------------------------------#

MISSING SEQUENCES
As recorded by Voivod
(From the 1989 Album NOTHINGFACE)

Transcribed by Thomas_v2.1
        

Words and Music by Jean-Yves Theriault, Dennis Damour, Michel Langevin, Dennis Belanger

Gtr I (E A D G B E) - 'Untitled'
Gtr II (E A D G B E) - 'Untitled'

   Intro
    Moderately Q=101
    N.C.                                     G#5
   3/4
    Gtr I
    Q  Q  Q    Q  Q  Q   3x Q  Q  Q    Q  Q  Q
||--0--------|-4-----0---||-0--------|-4-----4--|
||o-------0--|----4--0--o||-------0--|----4--4--|
||-----3-----|-----------||----3-----|----------|
||-----------|-----------||----------|----------|
||o----------|----------o||----------|----------|
||-----------|-----------||----------|----------|


   Verse
    Faster Q=134
    $
    N.C.
    Gtr II
    PM------------|
    E S S E S S E E   H.     3x
||------------------|--------||
||o-----------------|-------o||
||------------------|--------||
||------------------|--------||
||o-----------------|-4-----o||
||--0-0-0-0-0-0-0-3-|--------||


                      C#m
    PM------------|
    E S S E S S E E   H.     3x
||------------------|--------||
||o-----------------|-------o||
||------------------|--------||
||------------------|-2------||
||o-----------------|-4-----o||
||--0-0-0-0-0-0-0-3-|--------||


    B5                N.C.
    PM------------|
    E S S E S S E E   H.     4x
||------------------|--------||
||o-----------------|-------o||
||------------------|--------||
||--4-----4-----4---|-6------||
||o-2-2-2-2-2-2-2-2-|-6-----o||
||------------------|--------||


  B5                  N.C.
  PM------------|
  E S S E S S E E     H.
|-------------------|--------------------|
|-------------------|--------------------|
|-------------------|--------------------|
|-4-----4-----4-----|-6------------------|
|-2-2-2-2-2-2-2-2---|-6------------------|
|-------------------|--------------------|
|
| Gtr II
| E S S E S S E S S   E  S S E S S E S S
|-------------------|--------------------|
|-7-7-7-7-7-7-7-7-7-|-9--9-9-9-9-9-9-9-9-|
|-------------------|--------------------|
|-------------------|--------------------|
|-------------------|--------------------|
|-------------------|--------------------|


  B5                           N.C.
   PM------------------|
   E  S  S  E  S  S  E  E       H.
|----------------------------|-----------------------------|
|----------------------------|-----------------------------|
|----------------------------|-----------------------------|
|--4--------4--------4-------|--6--------------------------|
|--2--2--2--2--2--2--2--2----|--6--------------------------|
|----------------------------|-----------------------------|
|
|  E  S  S  E  S  S  E  S  S    E   S  S  E  S  S  E  S  S
|----------------------------|-----------------------------|
|-12-12-12-12-12-12-12-11h12-|-11--11-11-11-11-11-11-11-11-|
|----------------------------|-----------------------------|
|----------------------------|-----------------------------|
|----------------------------|-----------------------------|
|----------------------------|-----------------------------|


  B5                           N.C.
   PM------------------|
   E  S  S  E  S  S  E  E       H.
|----------------------------|-----------------------------|
|----------------------------|-----------------------------|
|----------------------------|-----------------------------|
|--4--------4--------4-------|--6--------------------------|
|--2--2--2--2--2--2--2--2----|--6--------------------------|
|----------------------------|-----------------------------|
|
|  E  S  S  E  S  S  E  S  S    E   S  S  E  S  S  E  S  S
|-14-14-14-14-14-14-14-14-14-|-12--12-12-12-12-12-12-12-12-|
|-12-12-12-12-12-12-12-11h12-|-11--11-11-11-11-11-11-11-11-|
|----------------------------|-----------------------------|
|----------------------------|-----------------------------|
|----------------------------|-----------------------------|
|----------------------------|-----------------------------|


  B5                           N.C.
   PM------------------|
   E  S  S  E  S  S  E  E       H.
|----------------------------|--------------------------|
|----------------------------|--------------------------|
|----------------------------|--------------------------|
|--4--------4--------4-------|--6-----------------------|
|--2--2--2--2--2--2--2--2----|--6-----------------------|
|----------------------------|--------------------------|
|
|  E  S  S  E  S  S  E  S  S    E   S  S  E  S  S  E  E
|-11-11-11-11-11-11-11-11-11-|-12--12-12-12-12-12-12-12-|
|-12-12-12-12-12-12-12-11h12-|-11--11-11-11-11-11-11-11-|
|----------------------------|--------------------------|
|----------------------------|--------------------------|
|----------------------------|--------------------------|
|----------------------------|--------------------------|


    F#b5
   4/4
    E E E E Q  E E   E E E E E E Q
||-----------------|----------------|
||o----------------|----------------|
||-----------------|----------------|
||--4-----4------4-|-4-4-4-----4----|
||o-3-----3------3-|-3-3-3-----3----|
||--2-----2------2-|-2-2-2-----2----|


  E E Q  E E E E   E E E E E E E E  3x
|----------------|------------------||
|----------------|-----------------o||
|----------------|------------------||
|-4----------4---|---4-----4-----4--||
|-3--------3-----|-3-----3-----3---o||
|-2------2-----2-|-----2-----2------||


    Much Faster Q=202
    N.C.
    E E  E E +E   Q  E   E E  E E +E   Q  E
||---------------------|--------------------|
||o--------8-(8)-------|--------8-(8)-------|
||--9p8----8-(8)-----8-|-9p8----8-(8)-----8-|
||------10-------10----|-----10-------10----|
||o--------------------|--------------------|
||---------------------|--------------------|


  E E  E E +E   Q  E   E E  E E +E   Q   E
|--------------------|---------------------|
|--------8-(8)-------|--------8-(8)--------|
|-9p8----8-(8)-----8-|-9p8----8-(8)--------|
|-----10-------10----|-----10-------10-----|
|--------------------|------------------10-|
|--------------------|---------------------|


   E E E E +E  Q  E    E E E E +E  Q  E
|-10-----8-(8)------|-10-----8-(8)------|
|-10p8---8-(8)----8-|-10p8---8-(8)----8-|
|------8-------8----|------8-------8----|
|-------------------|-------------------|
|-------------------|-------------------|
|-------------------|-------------------|


   E E E E +E  Q  E    E E E E +E  Q.
|-10-----8-(8)------|-10-----8-(8)-------||
|-10p8---8-(8)----8-|-10p8---8-(8)------o||
|------8-------8----|------8-------8-----||
|-------------------|--------------------||
|-------------------|-------------------o||
|-------------------|--------------------||


  Slower Q=168
  E E E  E Q   Q    E E E  E Q   Q
|-----------------|-----------------|
|-----------------|-----------------|
|-8-9-8----8------|-8-9-8----8------|
|-------10----10--|-------10----10--|
|-----------------|-----------------|
|-----------------|-----------------|


  E  E E E Q  Q    E  E E E Q  Q
|----------------|----------------|
|-7-10-7---7-----|-7-10-7---7-----|
|--------8----8--|--------8----8--|
|----------------|----------------|
|----------------|----------------|
|----------------|----------------|


  (F#)
    E  E  E  E  Q   Q     E  E  E  E  Q   Q
|----------------------|---------------------|
|-/10-13-10----10------|-10-13-10----10------|
|-----------11-----11--|----------11-----11--|
|----------------------|---------------------|
|----------------------|---------------------|
|----------------------|---------------------|


  (A)
                       5/4
                                  |-----------5:6------------|
   E  E  E  E  Q   Q     E  S  S  S  S  S  S  S  S  S  S  S  S  Q
|---------------------|--------------------------------------------|
|-13-16-13----13------|-13-16p13----13h16p13----13h16p13----13-17--|
|----------14-----14--|----------14----------14----------14--------|
|---------------------|--------------------------------------------|
|---------------------|--------------------------------------------|
|---------------------|--------------------------------------------|


   Chorus
    Slower Q=126
                                             To Coda
    N.C.
   3/4                                   5/8
    E S S +E  E E E   E S S +E  E  E  E    E  E E E E  4x
||------------------|-------------------|-10-----------||
||o-8---8-(8)-8---7-|-8---8-(8)-8----10-|----10-8---7-o||
||--7---7-(7)-7-9-7-|-7---7-(7)-7-10----|---------7-7--||
||--------------9---|-------------------|--------------||
||o-----------------|-------------------|-------------o||
||------------------|-------------------|--------------||


 4/4
              >
  W          +W
|----------|--------|
|-8--------|-(8)----|
|-7--------|-(7)----|
|----------|--------|
|----------|--------|
|----------|--------|


 Guitar Solo
  N.C.
  E  E  E  E  E  E E  E   E E E E E Q.     +E  E E E S S S S E S S
|---12------------------|----------------|-------------------------|
|------11----11---------|----------------|-------------------------|
|---------10----10---10-|----------------|-------------------------|
|------------------9----|-9---9----------|-----------5---5-7s9-7h9-|
|-----------------------|---8---8--------|-----7-5-7---7-----------|
|-----------------------|---------7S0----|-(0)---------------------|


                      ~~
  S T T S S T T S S S Q.   +E     E  S  S  S  S  S  S  S  S  S  S  S  S  S  S
|-------------------------------|---15p12----15p12----15p12----15p12----17p12-|
|-------------------------------|---------12-------12-------12-------12-------|
|-7h9p7---7h9p7---7h9-6----(6)/-|---------------------------------------------|
|-------9-------9---------------|---------------------------------------------|
|-------------------------------|---------------------------------------------|
|-------------------------------|---------------------------------------------|


   S  S  S  S  S  S  S  S  S  S  S  S  S  S  S  S
|----17p12----17p12----17p12----17p12----17p12----|
|-12-------12-------12-------12-------12----------|
|----------------------------------------------12-|
|-------------------------------------------------|
|-------------------------------------------------|
|-------------------------------------------------|


         ~~~~~                                                                       ~~~~
   E     Q      T  T  S  E     T  T  S  S  T  T  S  S    E  S  S  S  S  S  S  E  E  +Q
|-12--------------------------------------------------|----------------------------------|
|-15b17-15b17--12h15p12-------------------------------|----------14-15-14----------------|
|-----------------------14b16-12h14p12----12h14p12-14-|-16-14-16----------16-12----------|
|--------------------------------------14-------------|-------------------------14-(14)--|
|-----------------------------------------------------|----------------------------------|
|-----------------------------------------------------|----------------------------------|


                                     1.,2.          3.
                                            D.S. al Coda
    Dm/A  Dsus2/A    Csus4/Bb/F       Csus4/GBb/F
   3/4                               2/4
     Q.    E  +Q      Q.    E  +Q      Q   E  E      Q   Q
||--13----12-(12)--|----------------|------------||---------|
||o-15----15-(15)--|-18----15-(15)--|-18--18-15-o||-18--18--|
||--14----14-(14)--|-17----15-(15)--|-17--17-15--||-17--17--|
||-----------------|-17----15-(15)--|-17--17-15--||-17--17--|
||o----------------|----------------|-----------o||---------|
||-----------------|----------------|------------||---------|


 Outro
  &
  N.C.                            F5       Eb      Db5
 3/4               2/4
  E S S +E  E E E   E S S +E  E    q  Q    q  Q    q  Q
|-----------------|-------------|--------|-------|-------|
|-8---8-(8)-8---7-|-8---8-(8)-8-|--------|-------|-------|
|-7---7-(7)-7-9-7-|-7---7-(7)-7-|-10-----|-8-----|-6-----|
|-------------9---|-------------|-10-----|-8-----|-6-----|
|-----------------|-------------|--------|-------|-------|
|-----------------|-------------|--------|-------|-------|


    Gm7   Am7   Gm7 Am7  Gm7   Am7   C5  D5   Gm7   Am7   Gm7 Am7
   4/4
     E  E  Q  E  Q   E    E  E  Q  E  Q   E    E  E  Q  E  Q   E
||---------------------|--------------------|--------------------|
||o-11-11-13----11--13-|-11-11-13-----------|-11-11-13----11--13-|
||--10-10-12----10--12-|-10-10-12-----------|-10-10-12----10--12-|
||--12-12-14----12--14-|-12-12-14-----------|-12-12-14----12--14-|
||o-10-10-12----10--12-|-10-10-12----10--12-|-10-10-12----10--12-|
||---------------------|--------------8--10-|--------------------|


  Gm7   Am7   C5  D5   Gm7   Am7   Gm7 Am7  Gm7   Am7   Gm7 Am7
   E  E  Q  E  Q   E    E  E  Q  E  Q   E    E  E  Q  E  Q   E
|--------------------|--------------------|--------------------|
|-11-11-13-----------|-11-11-13----11--13-|-11-11-13----11--13-|
|-10-10-12-----------|-10-10-12----10--12-|-10-10-12----10--12-|
|-12-12-14-----------|-12-12-14----12--14-|-12-12-14----12--14-|
|-10-10-12----10--12-|-10-10-12----10--12-|-10-10-12----10--12-|
|--------------8--10-|--------------------|--------------------|


  Bbm7                                            Gm7
                                                  >
   H     E  E  E  E    +E   E  E  E  E  E  Q      W
|-------------------|--------------------------||------*|
|-14----14----------|------14-------14----14--o||-3----*|
|-13-------13----13-|-(13)----13-------13------||-3----*|
|-15----------15----|------------15------------||-3----*|
|-13----------------|-------------------------o||-5----*|
|-------------------|--------------------------||-3----*|



Duration Legend
---------------
W - whole; H - half; Q - quarter; E - 8th; S - 16th; T - 32nd; X - 64th; a - acciaccatura
+ - note tied to previous; . - note dotted; .. - note double dotted
Uncapitalized letters represent notes that are staccato (1/2 duration)
Irregular groupings are notated above the duration line
Duration letters will always appear directly above the note/fret number it represents the
duration for.  Duration letters with no fret number below them represent rests.  Multi-
bar rests are notated in the form Wxn, where n is the number of bars to rest for.  Low
melody durations appear below the staff

Tablature Legend
----------------
 h   - hammer-on
 p   - pull-off
 b   - bend
 pb  - pre-bend
 r   - bend release (if no number after the r, then release immediately)
 /\  - slide into or out of (from/to "nowhere")
 s   - legato slide
 S   - shift slide
 - natural harmonic
[n]  - artificial harmonic
n(n) - tapped harmonic
 ~   - vibrato
 tr  - trill
 T   - tap
 TP  - trem. picking
 PM  - palm muting
\n/  - tremolo bar dip; n = amount to dip
 \n  - tremolo bar down
 n/  - tremolo bar up
/n\  - tremolo bar inverted dip
 =   - hold bend; also acts as connecting device for hammers/pulls
 <> - volume swell (louder/softer)
 x   - on rhythm slash represents muted slash
 o   - on rhythm slash represents single note slash

Misc Legend
-----------
 |  - bar
||  - double bar
||o - repeat start
o|| - repeat end
*|  - double bar (ending)
 :  - bar (freetime)
 $  - Segno
 &  - Coda
Tempo markers -  = BPM(8/16=s8/s16), where s8 = swing 8ths, s16 = swing 16ths

Suggest correction
Give kudos to tab author, rate the tab!
1 2 3 4 5
comments
print report bad tab
guest
You may want to rate the tab now too:
select rating
Please do not post tabs as comments. Select "correction" instead!