Oops, an error
Loading. Please wait.

Nothingface Bass Tab

version 1
version 1

Whole song

Interactive

755 views 1 this week
1 commentread comment
1 2 3 4 5
please rate
add to favorites
launch autoscroll
font size
0
reset
guitar tuner
Tab Pro tools
  • play this tab
  • loop segment
  • change instrument
  • show fretboard
  • metronome
×
Best way to learn
"Nothingface"
Autoscroll
slow
fast
+/-
esc
set tempo
stop
Contributor
Band- Voivod
Song- Nothingface

INTRO

G[----------------12-------------------------|-----------12------------------------|
D[10--10-10-10--------------------------|-10--10-10-10-----------------------------|
A[------------------------9--9-9-9-7--|-------------------------9--8]  x 4---------|
E[------------------------------------------|--------------------------------------|

Do this four times for the intro

VERSE


G[-------------------------------|
D[-----------------------12------|
A[--8-7-11-10-13-11----10|   x 2-|
E[-7-----------------------------|


CHORUS

G[----------------------|
D[----------------7-----|
A[-1---3---5--5--5| x 4-|
E[3---5---6--6----------|
                   ^
                   The timing for this bit is tricky (from the A# to the last D in the 
like 1234, but you have to hold on to the A#
	   and sort of pluck off the A on the D string.|

BRIDGE AFTER CHORUS
0:51

G[----|------------------------|------------------------|-------------------------|
D[ ---|--12--3-------------3-|--12--3-------------3-|--7p5--3-----------3---------|
A[-5-|---------5-5p3-3h5-5|---------5-5p3-3h5-5|---------5-5p3-3h5-5--------------|
E[----|------------------------|------------------------|-------------------------|

			      A		       B

Then alternate between A and B til the chorus returns at 1:12. The sequence is repeated, 
then at 1:52,
1:52

G[------------------------------|
D[------------------------------|
A[4---432-7654---432-765--------|
E[------------------------------|

1:57

G[--- --------------------------|
D[-----h5-4------h6-5-----------|
A[0h4-------0h6------0h5-| x 4--|
E[------------------------------|

Repeat this four times. Its hard enough to get play, but its just a matter of geting 
to the timing. I only pluck the open A's, the A# on the
D string,  and the G on the D string.

It then goes back to the previous riff, and then repeats the sequence, ending like this:
2:16

G[----------------------------------|
D[11-11-11-11-11-11-11-11-----------|
A[----------------------------------|
E[----------------------------------|

2:18

G[----------------------------------|
D[-----h5-4------h6-5---------------|
A[0h4-------0h6------0h5-|      x 6-|
E[----------------------------------|

Lengthen the 4 and the 5 on the D a little to give that slight jazzy swing sound that he gets.
2:30

G[----------------------------------|
D[11-11-11-11-11-11-11-11-----------|
A[----------------------------------|
E[----------------------------------|

2:32

G[--------------3h0---------|
D[----------0h3-------------|
A[3-3-3-3-----------|   x 4-|
E[--------------------------|

Very fast. My best guess and it sounds ok..

2:38

G[-------------------------8-|    |------------------------------------|
D[----------------------------|    |-----------------------------------|
A[3h6-6-6-6-6-6-6-6-6---|  x3 |3h6-6-6-6-6-6-6-6-8-8-8-6---------------|
E[----------------------------|    |-----------------------------------|

Not sure of that octave on the G either, but it sounds ok.

Them two riffs are repeated until they are both played three times each overall. Then 
chorus comes in again.
3:09
CHORUS

G[----------------------|
D[----------------7-----|
A[-1---3---5--5--5| x 8-|
E[3---5---6--6----------|

BRIDGE BEFORE END
3:49

G[----------------------------|
D[10--------------------------|
A[--12-13-10-11-7-8---|   x 2-|
E[-----------------------7----|

END

G{--[-------------|
D{-4[----4--------|
A{---[4---|  x 12-| ?
E{---[2-----------|
comments
We did not receive enough feedback on this tab! Please rate:
print report bad tab
1 2 3 4 5
1 comment total.
0 reply
Mechayoshi wrote on December 11 2015, 11:15 am

Something is very off. It doesn't sound like the album at all. Needs work with intro verses etc. etc. etc.

I want to post or [tab]
guest
You may want to rate the tab now too:
select rating
Please do not post tabs as comments. Select "correction" instead!