Oops, an error
Loading. Please wait.

Nothingface Tab

version 1
version 1

Whole song

Interactive

3,386 views 6 this week
no commentswrite comment
1 2 3 4 5
please rate
add to favorites
launch autoscroll
font size
0
reset
how to read this tab
guitar tuner
Autoscroll
slow
fast
+/-
esc
set tempo
stop
Help us to improve Ultimate-Guitar.com Take our survey!
×
Author
Difficulty
intermediate
---------------------------------------------------------------------------
                             NOTHINGFACE - Voivod
---------------------------------------------------------------------------

Tabbed by: Greg Frisenda
Email: clanktherobot@yahoo.com

Tuning: Standard E

Riff A - Intro Verse - 4x
e|-8--6----------8--6--------|
B|-8--7---6--4---8--7---7-6--|
G|--------6--4----------6-5--|
D|---------------------------|
A|---------------------------|
E|---------------------------|

Riff B - Intro Verse - 2x
e|---------------------------|
B|-7--7--7--7--7--7----7-7---|
G|-5--5--5--5--5--5----5-5---|
D|---------------------------|
A|---------------------------|
E|---------------------------|

Riff C - Chorus - 4x
e|------------------------------------------------------|
B|------------------------------------------------------|
G|-----0------0------0------0------0------0-------------|
D|---0------0------0------2------0------3----0--3--0----|
A|--------1------0------3------1------5------1--3--0----|
E|-3----------------------------------------------------|

Riff D1 - Verse
e|-7-7--x-x--6--7--7-7---7--6--|
B|-7-7--x-x--6--7--7-7---7--6--|
G|-6-6--x-x--5--6--6-6---6--5--|
D|-----------------------------|
A|-----------------------------|
E|-----------------------------|

Riff D2 - Verse
e|-13-13--x-x--12--13--13-13---13--12--|
B|-13-13--x-x--12--13--13-13---13--12--|
G|-12-12--x-x--11--11--12-12---12--11--|
D|-12-12--x-x--11--11--12-12---12--11--|
A|-------------------------------------|
E|-------------------------------------|

Repeat C
Repeat D1
Repeat D2

Riff E1
e|------------------------------------|
B|------------------------------------|
G|-----8-7-6------------8-7-6---------|
D|-5---7-6-5-8-7-6--5---7-6-5-8-7-6---|
A|-4---------7-6-5--4---------7-6-5---|
E|------------------------------------|

Riff E2 - 4x
e|----------------------------|
B|----------------------------|
G|----------------------------|
D|-----5-4--------7-6---------|
A|-4-4------5-4-0------7-6-6--|
E|----------------------------|

Repeat Riff E1

Riff E3 - 4x
e|-------------------|
B|-------------------|
G|----6-----8-----10-|
D|-5-----7------9----|
A|-------------------|
E|-------------------|

Riff F1
e|------------------|
B|------------------|
G|-6-6-6-6-6-6-6-6--|
D|-5-5-5-5-5-5-5-5--|
A|-4-4-4-4-4-4-4-4--|
E|------------------|

Riff F2
e|-7---10---7---10---7-10--12---15---12---15---12-15--14---17---14---17---|
B|-6---9----6---9----6-9---11---14---11---14---11-14--13---16---13---16---|
G|------------------------------------------------------------------------|
D|------------------------------------------------------------------------|
A|------------------------------------------------------------------------|
E|------------------------------------------------------------------------|
e|-14-17--17---20---17---20---17-20------17-20-17-20-17-20-17-20-17-20-17-|
B|-13-16--16---19---16---19---16-19------16-19-16-19-16-19-16-19-16-19-16-|
G|------------------------------------------------------------------------|
D|------------------------------------------------------------------------|
A|------------------------------------------------------------------------|
E|------------------------------------------------------------------------|

Repeat Riff F1

Riff G1 - 4x
e|-------------------------|
B|-------------------------|
G|---------------3-4-3-0---|
D|-4--4--4--4-4------------|
A|-3--3--3--3-3------------|
E|-------------------------|

Riff G2 - 4x
e|------------------------------------------------------------------------|
B|-7--7--7--7-7--6-7-6--7--7--7--7-7--6-7-6--7--7--7--7-7--6-7-6--7-7-7---|
G|-8--8--8--8-8---------8--8--8--8-8---------8--8--8--8-8---------8-8-8---|
D|------------------------------------------------------------------------|
A|------------------------------------------------------------------------|
E|------------------------------------------------------------------------|

e|--------------|
B|-6-7-6--------|
G|-------7-8-7--|
D|--------------|
A|--------------|
E|--------------|

Riff G2 overdub
e|-------------------------|
B|-11----------12-----13---|
G|-------10----------------|
D|-------------------------|
A|-------------------------|
E|-------------------------|

Repeat G1 & G2 sequence 3x total
Repeat C - 4x

Riff H - 2x
e|-----------------------------------------------------------------|
B|-12-------9--------11---------8---------9-------4-----6--(0)-----|
G|----11------8---------10--------7---------8-------3---5--(0)--5--|
D|--------------------------------------------------------------5--|
A|-----------------------------------------------------------------|
E|-----------------------------------------------------------------|

Riff I - End
e|----------------8-----9-----10-----11-------12--------|
B|------------------7-7---8-8----9-9----10-10-11--------|
G|------------------------------------------------------|
D|------------------------------------------------------|
A|------------------------------------------------------|
E|-2------2---------------------------------------------|


| /  slide up
| \  slide down
| h  hammer-on
| p  pull-off
| ~  vibrato
| +  harmonic
| x  Mute note
===========================================================================
Suggest correction
Give kudos to tab author, rate the tab!
1 2 3 4 5
comments
print report bad tab
guest
You may want to rate the tab now too:
select rating
Please do not post tabs as comments. Select "correction" instead!