Oops, an error
Loading. Please wait.

Rebel Robot Bass Tab

200 views 3 this week
no commentswrite comment
1 2 3 4 5
please rate
add to favorites
launch autoscroll
font size
0
reset
guitar tuner
Autoscroll
slow
fast
+/-
esc
set tempo
stop
Help us to improve Ultimate-Guitar.com Take our survey!
×
Author
Band- Voivod
Song- Rebel Robot

Play with distortion (a 5-string bass is used on this recording)

intro
G|-------|-------|-------|-----------|
D|-------|-------|-------|-----------|
A|-------|-------|-------|-----------|
E|-2-----|-3-----|-2-----|-3�3333333-|

Main riff

G|----------------|
D|----------------|
A|----------------|
E|--7-0-7-0-7-888-| x8

Verse 1
G|-----------------|-----------------|-----------------|-----------------|
D|-----------------|-----------------|-----------------|-----------------|
A|-----------------|-----------------|-----------------|-----------------|
E|-7-0-7-0-7-8-5-7-|-7-0-7-0-7-8-5-7-|-7-0-7-0-7-8-5-7-|-7-0-7-0-7-8-7-5-|

G|-----------------|-----------------|-----------------|-----------------|
D|-----------------|-----------------|-----------------|-----------------|
A|-----------------|-----------------|-----------------|-----------------|
E|-7-0-7-0-7-8-5-7-|-7-0-7-0-7-8-5-7-|-7-0-7-0-7-8-5-7-|-7-0-7-0-7-8-888-|

G|----------------|
D|----------------|
A|----------------|
E|--7-0-7-0-7-888-| x8

Verse 2 (same as verse 1)

Chorus 1

G|-----------------|---------------------|
D|-----------------|---------------------|
A|-----------------|---------------------|
E|-2-0-2-0-2-0-2-0-|-5-0-5-0-5-0-5-0-5-0-| x4

G|----------------|
D|----------------|
A|----------------|
E|--7-0-7-0-7-888-| x8

Verse 3 (same as verse 1)

Chorus 2

G|-----------------|---------------------|
D|-----------------|---------------------|
A|-----------------|---------------------|
E|-2-0-2-0-2-0-2-0-|-5-0-5-0-5-0-5-0-5-0-| x6?


Bridge

G|------------------------|------------------|-----------------|
D|------------------------|------------------|-----------------|
A|------------5---5-7-5-7-|-/9-9-9-9-9-9-9-9-|-9-9-9-9-9-9-9-9-|
E|-7--5-7-57-----7--------|------------------|-----------------|



G|------------------------|------------------|-----------------|
D|------------------------|------------------|-----------------|
A|------------5---5-7-5-7-|-/9-9-9-9-9-9-9-9-|-5-5-5-5-5-5-5---|
E|-7--5-7-57----7---------|------------------|---------------7-|

G|------------------------|------------------|-----------------|
D|------------------------|------------------|-----------------|
A|------------5-----/7----|-/9-9-9-9-9-9-9-9-|-9-9-9-9-9-9-9-9-|
E|-7--5-7-57--------------|------------------|-----------------|

G|------------------------|------------------|-----------------|
D|------------------------|------------------|-----------------|
A|------------5-----/7----|-/9-9-9-9-9-9-9-9-|-5-5-5-5-7-5-7\--|
E|-7--5-7-57--------------|------------------|-----------------|

Guitar solo

G|------------------|
D|------------------|
A|------------------|
E|-7-57-57-57-5-8-8-| x8

�matrix� part

G|-------------------|---------------|--------------|
D|-------------------|---------------|--------------|
A|-------------------|-5-5-5-5-5-5-5-|-3-3-3-3--3---|
E|-7-57-57-57-57-5-7-|---------------|---------5--5-| x4

G|-------------------|------------------|---------------|
D|-------------------|------------------|---------------|
A|-------------------|-5-5-5-5-/9-7-5-7-|-5-------------|
E|-7-57-57-57-57-5-7-|------------------|---7-7-7-5-7-5-|

G|-------------------|------------------|---------------|
D|-------------------|------------------|---------------|
A|-------------------|-5-5-5-5-/9-7-5-7-|--------5-7-5--|
E|-7-57-57-57-57-5-7-|------------------|-7-5-7-5-----7-|

G|-------------------|------------------|-----------------|
D|-------------------|------------------|-----------------|
A|-------------------|-5-5-5-5-/9-9-7-7-|-7-5-7-5-9-9-7-9-|
E|-7-57-57-57-57-5-7-|------------------|-----------------|

G|-------------------|------------------|---------------|
D|-------------------|------------------|---------------|
A|-------------------|-5-5-5-5-/9-9-7-5-|-7/9-7-5-7-5---|
E|-7-57-57-57-57-5-7-|------------------|------------7-5|

Ending riff

G|----------------------|
D|----------------------|
A|----------------------|
E|-77-5-77-5-77-5-7-5-7-| x4
Suggest correction
What's this?
You can suggest a correction to this tab. Community and Mods will review your correction and vote to approve or reject it.
comments
We did not receive enough feedback on this tab! Please rate:
print report bad tab
1 2 3 4 5
guest
You may want to rate the tab now too:
select rating
Please do not post tabs as comments. Select "correction" instead!