Oops, an error
Loading. Please wait.

Technocratic Manipulators Tab

850 views 1 this week
no commentswrite comment
1 2 3 4 5
please rate
add to favorites
launch autoscroll
font size
0
reset
how to read this tab
guitar tuner
Autoscroll
slow
fast
+/-
esc
set tempo
stop
Help us to improve Ultimate-Guitar.com Take our survey!
×
Author
Difficulty
intermediate
---------------------------------------------------------------------------
                    TECHNOCRATIC MANIPULATORS - Voivod
---------------------------------------------------------------------------

Tabbed by: Greg Frisenda
Email: clanktherobot@yahoo.com

Tuning: Standard E

Riff A - Intro - 7x
e|------------------------------------|
B|------------------------------------|
G|------------------------------------|
D|------------------------------------|
A|------------------------------------|
E|-1-3-3-3-3-3-3-3-3-3-3-3-3-3-3-3-3--|

Riff B - Verse
e|------------------------------------------------------------------------|
B|--------------------------------------10-11-----------------------------|
G|--------3-2-3-2-3-2-3-2-6-6-6-6-6-6-6-10-10-----------------------------|
D|-3--5-5-3-3-3-3-3-3-3-3-5-5-5-5-5-5-5-----------------------------------|
A|-3--5-5-----------------------------------------------------------------|
E|-1--3-3-------------------------------------3-3-3-3-3-3-3-3-3-3-3-3-3-3-|

e|------------------------------------------------------------------------|
B|------------------------------------------------10-11-------------------|
G|--------3-2-3-2-3-2-3-2-----6-5-6-5-6-5-6-5-----10-10-------------------|
D|-3--5-5-3-3-3-3-3-3-3-3-----5-5-5-5-5-5-5-5-----------------------------|
A|-3--5-5-----------------5-5-----------------5-5-------------------------|
E|-1--3-3-----------------3-3-----------------3-3-------3-3-3-3-3-3-3-3-3-|

e|-----------------------------------------8-7-8-7-8-7-8-7-11-11-11-11-11-|
B|-----------------------------------------8-8-8-8-8-8-8-8-9--9--9--9--9--|
G|-----5-4-5-4-5-4-5-4-8-8-8-8-8-8-8-8---------------------8--8--8--8--8--|
D|-----5-5-5-5-5-5-5-5-7-7-7-7-7-7-7-7------------------------------------|
A|-0-0---------------------------------0-0--------------------------------|
E|------------------------------------------------------------------------|

Repeat Riff A once
Repeat Riff B once

Riff C - Pre-Chorus - 3x
e|-------------------------------|
B|-------------------------------|
G|-----9-------------------------|
D|-----9---9---6---4-------------|
A|-----7---9---6---4-------------|
E|-0-------7---4---2----6-7-6-0--|

Riff D - Chorus - 4x
e|------------------------------|
B|------------------------------|
G|-6-5-6-5-6-5--6-5--6-5-8-6-5--|
D|-5-5-5-5-5-5--5-5--5-5-5-5-5--|
A|------------------------------|
E|------------------------------|

Repeat Riff B once
Repeat Riff C 3x
Repeat Riff D 4x

Riff E - 4x
e|--------------|
B|--------------|
G|--------------|
D|--------------|
A|-------1-3-4--|
E|-3-1-3--------|

Riff F - Bridge - 4x
e|--------------|
B|--------------|
G|-------3-5-6--|
D|-5-3-5-3-5-6--|
A|-5-3-5--------|
E|--------------|

Riff G - Bridge - 8x
e|--------------|
B|--------------|
G|-5-3-5-3-5-6--|
D|-5-3-5-3-5-6--|
A|--------------|
E|--------------|

Solo (not transcribed)

Riff H - 2nd Bridge - 3x (last time, drop harmonic end chord)
e|-------------------------------------12-12-12-12-12-12-12-12-12-12-12-12|
B|-11-11-11-11-11-11-11-11-11-11-11-11-11-11-11-11-11-11-11-11-11-11-11-11|
G|-10-10-10-10-10-10-10-10-10-10-10-10------------------------------------|
D|------------------------------------------------------------------------|
A|------------------------------------------------------------------------|
E|------------------------------------------------------------------------|
   harm
e|-12------------------|
B|-12------------------|
G|-12------------------|
D|---------------------|
A|---------------------|
E|---------------------|

Repeat Riff B once
Repeat Riff D 4x

Riff I - End Verse - 2x
e|------------------------------------------------------------------|
B|------------------------------------------------------------------|
G|------------------------------------------------------------------|
D|------------------------------------------------------------------|
A|-------------------------------5-5-5-5-5-5-5-5-1-1-1-1-1-1-1-1----|
E|-3-3-3-3-1-1-3-3-3-3-1-1-3-1-3-6-6-6-6-6-6-6-6-2-2-2-2-2-2-2-2----|

Riff J - End Verse - 2x
e|------------------------------------------------------------------|
B|------------------------------------------------------------------|
G|-------------------------------3-3-3-3-3-3-3-3-6-6-6-6-6-6-6-6----|
D|-5-5-5-5-3-3-5-5-5-5-3-3-5-3-5-3-3-3-3-3-3-3-3-5-5-5-5-5-5-5-5----|
A|-5-5-5-5-3-3-5-5-5-5-3-3-5-3-5------------------------------------|
E|------------------------------------------------------------------|

Riff K - End Verse - 4x
e|------------------------------------------------------------------|
B|-8-8-8-8-6-6-8-8-8-8-6-6-8-6-6-4-4-4-4-4-4-4-4-6-6-6-6-6-6-6-6----|
G|-7-7-7-7-5-5-7-7-7-7-5-5-7-5-5-3-3-3-3-3-3-3-3-5-5-5-5-5-5-5-5----|
D|-5-5-5-5-3-3-5-5-5-5-3-3-5-3-3-1-1-1-1-1-1-1-1-3-3-3-3-3-3-3-3----|
A|------------------------------------------------------------------|
E|------------------------------------------------------------------|

Riff L - End Verse - 4x
e|------------------------------------------------------------------------|
B|------------------------------------------------------------------------|
G|-6-6-6-6-5-5-6-6-6-6-5-5-6-6-5-5-8-8-8-8-8-8-8-8-10-10-10-10-10-10-10-10|
D|-5-5-5-5-5-5-5-5-5-5-5-5-5-5-5-5-9-9-9-9-9-9-9-9-11-11-11-11-11-11-11-11|
A|------------------------------------------------------------------------|
E|------------------------------------------------------------------------|

Riff M - End Verse
e|---------------------------------|
B|---------------------------------|
G|-6-5-----------------------------|
D|-5-4-----5-4----------------4----|
A|---------4-3------4-3-------3----|
E|------------------3-2-------2----|



| /  slide up
| \  slide down
| h  hammer-on
| p  pull-off
| ~  vibrato
| +  harmonic
| x  Mute note
===========================================================================
Suggest correction
What's this?
You can suggest a correction to this tab. Community and Mods will review your correction and vote to approve or reject it.
comments
We did not receive enough feedback on this tab! Please rate:
print report bad tab
1 2 3 4 5
guest
You may want to rate the tab now too:
select rating
Please do not post tabs as comments. Select "correction" instead!