Oops, an error
Loading. Please wait.

Time Warp Tab

version 1
version 1

Whole song

Interactive

3,789 views 3 this week
1 commentread comment
1 2 3 4 5
please rate
add to favorites
launch autoscroll
font size
0
reset
how to read this tab
guitar tuner
Tab Pro tools
  • play this tab
  • loop segment
  • change instrument
  • show fretboard
  • metronome
×
Best way to learn
"Time Warp"
Autoscroll
slow
fast
+/-
esc
set tempo
stop
Contributor
Difficulty
intermediate
---------------------------------------------------------------------------
                           TIME WARP - Voivod
---------------------------------------------------------------------------

Tabbed by: Greg Frisenda
Email: clanktherobot@yahoo.com

Tuning: Standard E

Riff A - Intro
e|----------------------------------------------------------|
B|----------------------------------------------------------|
G|-10-6-5--10-6-5--10-6-5--10-6-5--10-6-5--10-6-5--10-6-5---|
D|----------------------------------------------------------|
A|----------------------------------------------------------|
E|----------------------------------------------------------|

Riff B - Verse - 4x (with Fills 1 & 2)
e|--------------6-------------------------------|
B|--------------6-------------------------------|
G|-3------5-----5-------------------------------|
D|-3------5-------------------------------------|
A|-1------3-------------------------------------|
E|------------------3---3---3---3---3---3---3---|

Fill 1 (3rd time)
e|----------------------|
B|----------------------|
G|-5--3-5-3---3---------|
D|----------5---5--3----|
A|----------------------|
E|----------------------|

Fill 2 (4th time at end)
e|-6--6--6--6--6--6--6--------|
B|-6--6--6--6--6--6--6--------|
G|-5--5--5--5--5--5--5--------|
D|----------------------------|
A|---------------------0--3---|
E|---------------------0--3---|

Riff C - Pre-Chorus (with Fill 3 last time)
e|-------7--x-7--x-7----------|
B|-------6--x-6--x-6----------|
G|-------5--x-5--x-5----------|
D|-0--------------------------|
A|-0------------------0--3----|
E|--------------------0--3----|

Fill 3
e|--------|
B|--------|
G|----3---|
D|-3------|
A|--------|
E|--------|

Riff D - Chorus - 4x
             harm.         harm.
e|-0---------12--------10-------------|
B|-0---------12---11---10-------------|
G|----------------10-------12------3--|
D|-------------------------12---3-----|
A|------------------------------------|
E|------0-----------------------------|

Quiet Interlude Solo
e|-12-------------------------------15-------15-------15-------15----------|
B|----11-------------------------------14-------14-------14-------14-------|
G|-------10-------------------------------12-------12-------12-------12----|
D|----------9--------------------------------------------------------------|
A|------------8------------------------------------------------------------|
E|--------------7-6-5-3-2-1-0----------------------------------------------|

   *full bend     *full bend                        *half bend
e|--------------------------------------------------17-------15------------|
B|-15---12-15-12-----------------------------------------------------------|
G|----------------14--14-12---------------------------------------------3--|
D|--------------------------14-12-14----------------------------------3----|
A|-------------------------------------------------------------------------|
E|-------------------------------------------------------------------------|

Repeat Riff D - 2x

Riff E
                     harm.         harm.
e|-0-----------------12--------10-------------0---------------|
B|-0-------------0---12---11---10-------------0-----------0---|
G|-------------3----------10-------12------3------------3-----|
D|-----------3---------------------12---3-------------3-------|
A|------------------------------------------------------------|
E|------0-----------------------------------------0-----------|

Riff F
e|-----------------------------------------------------------|
B|-----------------------------------------------------------|
G|-7-7-7-7-7-7-7-7-5-5-5-5-5-5-5-5-3-3-3-3-3-3-3-3-5-5-------|
D|-7-7-7-7-7-7-7-7-5-5-5-5-5-5-5-5-3-3-3-3-3-3-3-3-5-5-------|
A|-5-5-5-5-5-5-5-5-3-3-3-3-3-3-3-3-1-1-1-1-1-1-1-1-3-3-0--3--|
E|-5-5-5-5-5-5-5-5-3-3-3-3-3-3-3-3-1-1-1-1-1-1-1-1-3-3-0--3--|

Repeat Riff C - Pre-Chorus
Repeat Riff A
Repeat RIff B - 4x with Fills

Riff G - End 
e|------------------------------------------------------------------------|
B|------------------------------------------------------------------------|
G|-10-6-5--10-6-5--10-6-5--10------10-6-5--10-6-5--10-6-5--10-------------|
D|------------------------------------------------------------------------|
A|------------------------------------------------------------------------|
E|------------------------------------------------------------------------|

e|------------------------------------------------------------------------|
B|------------------------------------------------------------------------|
G|-10-6-5--10-6-5--10-6-5--10------10-6-5--10-6-5--10-6-5---3-----5-------|
D|----------------------------------------------------------3-----5-------|
A|----------------------------------------------------------1-----3-------|
E|----------------------------------------------------------------------3-|


| /  slide up
| \  slide down
| h  hammer-on
| p  pull-off
| ~  vibrato
| +  harmonic
| x  Mute note
===========================================================================
comments
We did not receive enough feedback on this tab! Please rate:
print report bad tab
1 2 3 4 5
1 comment total.
0 reply
Clydelee wrote on November 24 2014, 02:26 pm

THE OUTER LIMITS!!!!

I want to post or [tab]
guest
You may want to rate the tab now too:
select rating
Please do not post tabs as comments. Select "correction" instead!